Guitaretab - guitar tabs
Song name
# A B C D E F G H I J K L M N O P Q R S T U V W X Y Z

Built To Spill - Virginia Reel Around The Fountain tab

-------------------------------------------------------------------------------
VIRGINIA REEL AROUND THE FOUNTAIN ( live ) Ė Built to Spill
----------------------------------------------------------------------------
Tabbed by: Benson
Email: dontcallmebenny@hotmail.com

Tuning: Standard

Main Riff: This is the basic melody, octaves of E, C# and B.

e|-------------------------------------------------------------------------|
B|-------------------------------------------------------------------------|
G|-9---6---4---------------------------------------------------------------|
D|-------------------------------------------------------------------------|
A|-7---4---2---------------------------------------------------------------|
E|-------------------------------------------------------------------------|

For the first solo, improvise around this riff 4 times:
[ Tab from: http://www.guitaretab.com/b/built-to-spill/68011.html ]
e|-------------------------------------------------------------------------|
B|-12-10-14-10-9-----------------------------------------------------------|
G|-------------------------------------------------------------------------|
D|-------------------------------------------------------------------------|
A|-------------------------------------------------------------------------|
E|-------------------------------------------------------------------------|

Then, go back to the main riff, but stay on the C#, donít go to the B. The
bridge section is sliding octaves Ė E, Eb, C#, B then back to E.

e|-------------------------------------------------------------------------|
B|-------------------------------------------------------------------------|
G|-9-8-6-4-9---------------------------------------------------------------|
D|-------------------------------------------------------------------------|
A|-7-6-4-2-7---------------------------------------------------------------|
E|-------------------------------------------------------------------------|

Thatís pretty much it, for the solos just improvise in E major pentatonic. 

| /  slide up
| \  slide down
| h  hammer-on
| p  pull-off
| ~  vibrato
| +  harmonic
| x  Mute note
===============================================================================
Related for Virginia Reel Around The Fountain tab