Guitaretab - guitar tabs
Song name
# A B C D E F G H I J K L M N O P Q R S T U V W X Y Z

Built To Spill - Goin Against Your Mind tab

e|---------------------------------------------------------------------------|
B|---------------------------------------------------------------------------|
G|-----------7-7-7-7-7-7-7-7-----------11--11--11--11------------------------|
D|-----------9-9-9-9-9-9-9-9--------------12--12--12--12---------------------|
A|---------------------------------------------------------------------------|
E|---------------------------------------------------------------------------|
(repeat)



e|---------------------------------------------------------------------------|
B|---------------------------------------------------------------------------|
G|----------11~---14s11---9s7-7s911~---14s11---14s1616s1416~--19s14------|
D|---------------------------------------------------------------------------|
A|---------------------------------------------------------------------------|
E|---------------------------------------------------------------------------|



e|-------------------------------12s14-14s12---------------------------------|
B|---------------------------------------------------------------------------|
G|-----12p11-7s9---16-19s14-------------------16~--19s14---12-12p11---------|
D|---------------------------------------------------------------------------|
A|---------------------------------------------------------------------------|
E|---------------------------------------------------------------------------|


[ Tab from: http://www.guitaretab.com/b/built-to-spill/75546.html ]
e|---------------------------------------------------------------------------|
B|---------------------------------------------------------------------------|
G|-----11h12---16~--12p11-12p117~---7h9p7----7h9p7h9s11--9---7h9p7----------|
D|-----------------------------------------9------------------------7--------|
A|---------------------------------------------------------------------------|
E|---------------------------------------------------------------------------|



e|---------------------------------------------------------------------------|
B|---------------------------------------------------------------------------|
G|---------------------------------------------------------------------------|
D|------7---7-7--5-5-4(repeat)----------------------------------------------|
A|---------------------------------------------------------------------------|
E|---------------------------------------------------------------------------|



e|---------------------------------------------------------------------------|
B|---------------------------------------------------------------------------|
G|---------------------------------------------------------------------------|
D|------5-5-5-5-5-5-7-5-3-3-3-3-0-0-3-3--5-5-5-5-5-5-7-5-3-3-3-3-8-8---------|
A|------5-5-5-5-5-5-7-5-3-3-3-3-0-0-3-3--5-5-5-5-5-5-7-5-3-3-3-3-8-8---------|
E|---------------------------------------------------------------------------|



e|---------------------------------------------------------------------------|
B|---------------------------------------------------------------------------|
G|---------------------------------------------------------------------------|
D|------10-10-5-5-5-5-5-5-7-5-3-3-3-3-0-0-3-3-5-5-5-5-8-8-10-10-8~-----------|
A|------10-10-5-5-5-5-5-5-7-5-3-3-3-3-0-0-3-3-5-5-5-5-8-8-10-10-8~-----------|
E|---------------------------------------------------------------------------|
Related for Goin Against Your Mind tab