Song name
# A B C D E F G H I J K L M N O P Q R S T U V W X Y Z

Built To Spill - Fling tab

The studio version of this song is tuned 1/2 step up, live is usually just standard 
Listen to the song for strum patterns, etc. isn't too hard to figure out!

INTRO:

E|--0--0--7--5--7--5--|
B|--5--5--6--6--6--6--|
G|--7--6--7--7--7--7--|
D|--7--7--0--0--0--0--|
A|--0--0--0--0--0--0--|
E|--------------------|

VERSE:

listen to recording for strum pattern for this too
between verses play the intro.

E|--0--0--0--0--|
B|--5--5--7--5--|
G|--6--7--9--7--|
D|--7--7--9--7--|
A|--0--0--0--0--|
E|--------------|

thats it, simple right? enjoy.
Tap to rate this tab
 
# A B C D E F G H I J K L M N O P Q R S T U V W X Y Z