Song name
# A B C D E F G H I J K L M N O P Q R S T U V W X Y Z

Bukas Palad - How Lovely Is Your Dwelling Place tab

HOW LOVELY IS YOUR DWELLING PLACE INTRO TAB


e|---------------------------5---5---7-3-----3------2-3-0-----3----------------3--|
B|---1--0---3---3---5----3---------------------0----------------3----3-1-3--------|
G|-----------------------2-----------------------0----------0-----0---------------|
D|------------0---0---0--------0---0-------2--------------2------------------0----|
A|--------2----------------0-------------2--------------3------------------2------|
E|------3----------------2-------------0---------------------------------3--------|

e|-----------------3-----|
B|--3--------------------|
G|----0------------0-----|
D|------0--------0-------|
A|--------2----2---------|
E|-----------3-----------|

CHORDS:: G  D/F# - Em  Cadd9  G
NOTE:: C B D D E D A A B G F# G E D C D
Tap to rate this tab
# A B C D E F G H I J K L M N O P Q R S T U V W X Y Z