Song name
# A B C D E F G H I J K L M N O P Q R S T U V W X Y Z

Bulldoze - The Truth tab

-------------------------------------------------------------------------------
			     The Truth - Bulldoze
-------------------------------------------------------------------------------

Tabbed by: Skip Anderson

Tuning: Drop D

The other tab on here was way wrong, so here you go.

e|-----------------------------------------|
B|-----------------------------------------|
G|-----------------------------------------|
D|----------5---8---7---3---6-6-6-6--------|
A|--6---5---3---6---5---1---4-4-4-4--------|
D|--6---5----------------------------------|

e|--------------|
B|--------------|
G|--------------|
D|---5~~--------|
A|---3~~--------|
D|--------------|

e|-------------------------------------------------------------------------------------------|
B|-------------------------------------------------------------------------------------------|
G|-------------------------------------------------------------------------------------------|
D|--5--5--5-5--5--5--5-5-------------6--6--6-6-----------------------------------------------|
A|--3--3--3-3--3--3--3-3--6--6--6-6--4--4--4-4--3--3--3-3--3--3--3-3--6--6--6-6--3--3--3-3---|
D|------------------------6--6--6-6-------------3--3--3-3--3--3--3-3--6--6--6-6--3--3--3-3---|

(the riff above is played again with a different strum pattern)

e|-----------------------------------------|
B|-----------------------------------------|
G|-----------------------------------------|
D|----------5---8---7---3---6-6-6-6--------|
A|--6---5---3---6---5---1---4-4-4-4--------|
D|--6---5----------------------------------|

e|-----------------------------------------|
B|-----------------------------------------|
G|-----------------------------------------|
D|----------6---5-----------5-5-4----------|
A|--6---5---4---3---6---5---3-3-2----------|
D|--6---5-----------6---5------------------| 


Tap to rate this tab
 
# A B C D E F G H I J K L M N O P Q R S T U V W X Y Z