Song name
# A B C D E F G H I J K L M N O P Q R S T U V W X Y Z

Bulldoze - Bulldoze tab

-------------------------------------------------------------------------------
			     BULLDOZE - Bulldoze
-------------------------------------------------------------------------------
Tabbed by:	Ste Stedz
Email: 		stestedz@hotmail.co.uk

Tuning: DADGBe


INTRO

e|-------------------------------|
B|-------------------------------|
G|-------------------------------|
D|-0----1----6----2----7----8----|
A|-0----1----6----2----7----8----|
D|-0----1----6----2----7----8----| x 4

e|--------------------------------------|                   e|----------|
B|--------------------------------------|                   B|----------|
G|--------------------------------------|                   G|----------|
D|-----0-----1-----6-----2-----7-----8--|                   D|-----0----|
A|-----0-----1-----6-----2-----7-----8--|                   A|-----0----|
E|-0-0-0-0-0-1-0-0-6-0-0-2-0-0-7-0-0-8--| x 4 but end with  D|-0-0-0----|
   . .   . .   . .   . .   . .   . .                           . .



VERSE

e|-----------------------------------|
B|-----------------------------------|
G|-----------------------------------|
D|-0-----7h8-------11p10---10p8p7h8--|
A|-0-----7h8-------11p10---10p8p7h8--|
E|-0-0-0-7h8-0-0-0-11p10-0-10p8p7h8--| x 10
     . .     . . .       . 



PRE-CHORUS
	
e|------------------|
B|------------------|
G|------------------|
D|-7777777777777777-|
A|-7777777777777777-|
E|-7777777777777777-|   gradually release palm mute
   ............



CHORUS

e|---------------------------------------------|
B|---------------------------------------------|
G|---------------------------------------------|
D|-2-2-1-2-3--2-2-1-2-3--2-2-1-2-3-----2-----1-|
A|-2-2-1-2-3--2-2-1-2-3--2-2-1-2-3-----2-----1-|
E|-2-2-1-2-3--2-2-1-2-3--2-2-1-2-3-2-2-2-1-1-1-| x 4
                                    . .   . .



BACK TO VERSE



BRIDGE

e|--------------------------------------------|
B|--------------------------------------------|
G|--------------------------------------------|
D|-0-----7-8-----11-10-7--0-----7-8-----2-3-1-|
A|-0-----7-8-----11-10-7--0-----7-8-----2-3-1-|
E|-0-0-0-7-8-0-0-11-10-7--0-0-0-7-8-0-0-2-3-1-| X 4
     . .     . .            . .     . . 



BREAKDOWN

e|-------------------------------------------------|
B|-------------------------------------------------|
G|-------------------------------------------------|
D|-2-2-7-8-7-6-2-2-7-8-7-6-2-2-7-8-7-6-----2-----1-|
A|-2-2-7-8-7-6-2-2-7-8-7-6-2-2-7-8-7-6-----2-----1-|
E|-2-2-7-8-7-6-2-2-7-8-7-6-2-2-7-8-7-6-2-2-2-1-1-1-| x 5 (first played with palm mutes)
                                       . .   . .

e|-----|
B|-----|
G|-----|
D|-0---|
A|-0---|
D|-0---| hold, then pick slide



ENDING

e|--------------------------------------|                   e|----------|
B|--------------------------------------|                   B|----------|
G|--------------------------------------|                   G|----------|
D|--0-----1-----6-----2-----7-----8-----|                   D|-----0----|
A|--0-----1-----6-----2-----7-----8-----|                   A|-----0----|
E|--0-0-0-1-0-0-6-0-0-2-0-0-7-0-0-8-0-0-| x 4 but end with  D|-0-0-0----|
      . .   . .   . .   . .   . .   . .                        . .

 

 ______
|LEGEND|
````````
| .  palm mute
| /  slide up
| \  slide down
| h  hammer-on
| p  pull-off
| ~  vibrato
| +  harmonic
| x  Mute note

===============================================================================
Tap to rate this tab
 
# A B C D E F G H I J K L M N O P Q R S T U V W X Y Z