Guitaretab - guitar tabs
Song name
# A B C D E F G H I J K L M N O P Q R S T U V W X Y Z

Bullet For My Valentine - Hearts Burst Into Fire tab

-----------------------------------------------------------------------------
		Hearts Burst Into Fire - Bullet For My Valentine
-----------------------------------------------------------------------------
Tabbed by: Luke

Tuning: Drop C (CGCFAD)

Hearts Burst Into Fire
Bullet For My Valentine
Scream Aim Fire
Track 3

Let me start out by saying that BFMV is my favorite band, and I love their new CD 
Scream Aim Fire.
This is one of my favorite songs off of their new album. I especially like the 
intro solo on this one.

I used Aniket Patni's TABs and edited them.


Intro:

Clean

D|---------3-----3-----3-----3-------------0-----------------------|
A|-----6-----6-----6-----6-----6--------6----6---------------------|
F|-------5-----5-----5-----5-----5-------5-----5-------------------|
C|-----------------------------------0-----------0-----------------|
G|---3-------------------------------------------------------------|
C|-3-------------------------------0-------------------------------|


D|---------3-----3-----3-----3-------------0-------------0---------|
A|-----6-----6-----6-----6-----6-------6-----6--------------6------|
F|-------5-----5-----5-----5-----5-------5-----5--------------5----|
C|-----------------------------------0-----------0--------------0--|
G|---3-------------------------------------------------------------|
C|-3-------------------------------0-------------------------------|


Intro Solo - Distorted

D|------------------------------------------------------------------------|
A|------------------------------------------------------------------------|
F|-~9h10T17p10p9h10----------------7-7~/9-9~/10-10~h12-12^14^12^14^12~~~--|
C|-x---------------10/12~\10-10~------------------------------------------|
G|x-----------------------------------------------------------------------|
C|------------------------------------------------------------------------|

D|--------------------------------------------------------------------|
A|--------------------------------------------------------------------|
F|-10h12h10h12T14p12p(X 5)10h12\9h10h9h10T12p10p(X4)9h10p9h10/12~~\\--|
C|--------------------------------------------------------------------|
G|--------------------------------------------------------------------|
C|--------------------------------------------------------------------|

D|----------------------------------------------------------------|
A|-------------------/10-8----8-10-11-10~\6-6---------------------|
F|-/7-9~/10-10~\5-5~-------10-------------------------------------|
C|----------------------------------------------------------------|
G|----------------------------------------------------------------|
C|----------------------------------------------------------------|



Verse A:

D|-------------------------------------------------------------|
A|-6---------6---5---------5---6---------6---5---5---6---6-----|
F|-5---------5---5---------5---5---------5---5---5---5---5-----|
C|-------------------------------------------------------------|
G|-------------------------------------------------------------|
C|-----3-333---3-----3-333---3-----3-333---3-------3-------0---|
       # ###   #     # ###   #     # ###   #       #       #

D|-------------------------------------------------------------|
A|-6---------6---5---------5---6---------6---5---6---5---6-----|
F|-5---------5---5---------5---5---------5---5---5---5---5-----|
C|-------------------------------------------------------------|
G|-------------------------------------------------------------|
C|-----0-000---0-----0-000---0-----0-000---0---0---0---0---0---|
       # ###   #     # ###   #     # ###   #   #   #   #   #


Verse B:

D|-------------------------------------------------------------|
A|-6---------6---5---------5---6---------6---5---5---6---6-----|
F|-5---------5---5---------5---5---------5---5---5---5---5-----|
C|-------------------------------------------------------------|
G|-------------------------------------------------------------|
C|-----3-333---3-----3-333---3-----3-333---3-------3-------0---|
       # ###   #     # ###   #     # ###   #       #       #

D|-------------------------------------------------------------|
A|-10--------10--8---------8---10--------10--8---10--8---6-----|
F|-10--------10--9---------9---10--------10--9---10--9---7-----|
C|-------------------------------------------------------------|
G|-------------------------------------------------------------|
C|-----0-000---0-----0-000---0-----0-000---0---0---0---0---0---|
       # ###   #     # ###   #     # ###   #       #       #





Bridge:

D|------------------------------------------------------------------|
A|------------------------------------------------------------------|
F|------------------------------------------------------------------|
C|-3---3-3-3-3-3-3-3-3-3-3-3-5-5-7---7-7-7-7-7-7-7-7-7-7-7-5-5-3----|
G|-1---1-1-1-1-1-1-1-1-1-1-1-3-3-5---5-5-5-5-5-5-5-5-5-5-5-3-3-1----|
C|-----#-#---#-#-#-#-#-#---#---#-----#-#---#-#-#-#-#-#---#---#------|

D|------------------------------------------------------------------|
A|------------------------------------------------------------------|
F|------------------------------------------------------------------|
C|-(3)-3-3-3-3-3-3-3-3-3-3-3-3-3-5---5-5-5-5-5-5-5-5-5-5-5-5-5-7----|
G|-(1)-1-1-1-1-1-1-1-1-1-0-1-1-1-3---3-3-3-3-3-3-3-3-3-1-3-3-3-5----|
C|-----#-#---#-#-#-#-#-#---#---#-----#-#---#-#-#-#-#-#---#---#------|

[ Tab from: http://www.guitaretab.com/b/bullet-for-my-valentine/102607.html ]
Pre chorus A:
still not sure about this part... the end sounds right but might not be correct.
D|---------------------------------------------------------------------------------------|
A|--------------13~----------------------------------------------------------------------|
F|-/10h12h14p10----10-9-10\5~~~-7~~--9h10p9-10~~-10-9-10/12~~~-12-14-12-10-12-10-9-7~~\\-|
C|---------------------------------------------------------------------------------------|
G|--------------------------------------------------------------------------------------|
C|---------------------------------------------------------------------------------------|

Pre chorus B:

D|-----------13~~------------------------------------------------------------------------|
A|-/10h11p10------10-8--10p8~~~-10~~-8h10p8-11~~-10-8-10/11~~~-11-13-11-10-11-10-8-------|
F|---------------------------------------------------------------------------------------|
C|---------------------------------------------------------------------------------------|
G|--------------------------------------------------------------------------------------|
C|---------------------------------------------------------------------------------------|



Chorus:


D|----------------------------------------------------------------|
A|----------------------------------------------------------------|
F|----------------------------------------------------------------|
C|-7-----8---7---5--3-----5---3---2-5---5-5-5-5-5-5-5-5-5-5-5-5-5-|
G|-5---5---5---5----1---1---1---1---3---3-3-3-3-3-3-3-3-3-1-3-3-3-|
C|-----#---#---#--------#---#---#-------#-#---#-#-#-#-#-#---#---#-|

D|----------------------------------------------------------------|
A|----------------------------------------------------------------|
F|----------------------------------------------------------------|
C|-7-----8---7---5--3-----5---3---2-5---5-5-5-5-5-5-5h7-7-7-7-7-7-|
G|-5---5---5---5----1---1---1---1---3---3-3-3-3-3-3-3---3-3-3-3-3-|
C|-----#---#---#--------#---#---#-------#-#---#-#-#---------------|



Interlude (Haven't tabbed out the acoustic part either, sorry. I'm planning on 
looking it up soon.)
D|-------------------------------------------------------------------|
A|-------------------------------------------------------------------|
F|-------------------------------------------------------------------|
C|-------------------------------------------------------------------|
G|-0-----------------0---------------------------------0-------------|
C|-0------------8-10-0----------8-10-8------------8-10-0--------8-10-|
c|-0------------8-10-0----------8-10-8------------8-10-0--------8-10-|


Verse C:

D|----------------------------------------------------------------------|
A|-6---------6---5-----5-----5---6-----6-----6---5---6---5---6----------|
F|-5---------5---5-----5-----5---5-----5-----5---5---5---5---5----------|
C|----------------------------------------------------------------------|
G|----------------------------------------------------------------------|
C|-----3-3-3---3---3-3---3-3---3---3-3---3-3---3---3---3---3---3--------|
       # # #   #   # #   # #   #   # #   # #   #   #   #   #   #
D|----------------------------------------------------------------------|
A|-6---------6---5-----5-----5---6-----6-----6---6----------------------|
F|-5---------5---5-----5-----5---5-----5-----5---5----------------------|
C|----------------------------------------------------------------------|
G|----------------------------------------------------------------------|
C|-----3-3-3---3---3-3---3-3---3---3-3---3-3---3------------------------|
       # # #   #   # #   # #   #   # #   # #   #


Interlude-Outro : (Padgets Part, Without the Harmoized guitar)

D|-----------/13-12-------------------------/13-12------------------------|
A|------------------13-----------------------------13---------------------|
F|---------------------12-10-9-10~--(X3)--------------12-10-/14-10~~------|
C|------------------------------------------------------------------------|
G|------------------------------------------------------------------------|
C|------------------------------------------------------------------------|


D|-----------/17-15-------------------------/17-15------------------------|
A|------------------17-----------------------------17---------------------|
F|---------------------15-14-12-14~-(X1)--------------15-14-/17-14~~------|
C|--3rd-time-only---------------------------------------------------------|
G|------------------------------------------------------------------------|
C|------------------------------------------------------------------------|



Last Rythym Bit

D|-------------------------------------------------------------------------|
A|-------------------------------------------------------------------------|
F|-------------------------------------------------------------------------|
C|-----0-------------------------------------------------------------------|
G|8-10-0-------------------------------------------------------------------|
C|8-10-0-------------------------------------------------------------------|



Outro

Guitar 1

D|-----------/13-12-------------------------/13-12------------------------|
A|------------------13-----------------------------13---------------------|
F|---------------------12-10-9-10~--(X3)--------------12-10-/14-10~~------|
C|------------------------------------------------------------------------|
G|------------------------------------------------------------------------|
C|------------------------------------------------------------------------|

Guitar 2
D|-----------/17-15-------------------------/17-15------------------------|
A|------------------17-----------------------------17---------------------|
F|---------------------15-14-12-14~-(X1)--------------15-14-/17-14~~------|
C|------------------------------------------------------------------------|
G|------------------------------------------------------------------------|
C|------------------------------------------------------------------------|

same outro thingy as before, just continue slowing down, and a couple notes 
are skipped on gtr. 2 every once in a while listen for them.


| x = muted note
| h = hammer on
| p = pull off
| T = tap
| / = slide up
| \ = slide down
| # = palm mute
| ~ = vibrato


So, there's all the parts. Just put them together, and ta da!, you've got an awesome song!
Enjoy!
Luke
Related for Hearts Burst Into Fire tab