Song name
# A B C D E F G H I J K L M N O P Q R S T U V W X Y Z

Bullet For My Valentine - Forever And Always tab

Song: Forever And Always
Artist: Bullet For My Valentine
Album: Scream, Aim, Fire
Tuning: CGCFAD (Drop C)

Duration Legend
---------------
W - whole
H - half
Q - quarter
E - 8th
S - 16th
T - 32nd
X - 64th
. - note dotted
|-n-|  - n-tuplets


Tablature Legend
----------------
L - tied note
x - dead note
g - grace note
(n) - ghost note
> - accentuded note
NH - natural harmonic
AH - artificial harmonic
TH - tapped harmonic
SH - semi harmonic
PH - pitch harmonic
h - hammer on
p - pull off
b - bend
br - bendRelease
pb - preBend
pbr - preBendRelease
brb - bendReleaseBend
\n/ - tremolo bar dip
\n - tremolo bar dive
-/n - tremolo bar Release up
/n\ - tremolo bar inverted dip
/n - tremolo bar return
-\n - tremolo bar Release down
S - shift slide
s - legato slide
/ -  slide into from below or out of upwards
\ -  slide into from above or out of downwards
~ - vibrato
W - wide vibrato
tr - trill
TP - tremolo picking
T - tapping
S - slap
P - pop
< - fade in
^ - brush up
v - brush down

                          |----3----|         |---3---|
     W                    Q    Q    Q    Q    E   E   E
D||-------------------|----------------------------------|
A||-------------------|----------------------------------|
F||-------------------|----------------------------------|
C||-------------------|----------------------------------|
G||-------------------|--/5----4----2----0---------------|
C||-------------------|-----------------------2s--4s--2--|


  PM PM    PM PM    PM PM       PM PM    PM PM
  E  E  E  E  E  E  E  E     E  E  E  E  E  E  E   E
--------------------------|---------------------------|
--------------------------|---------------------------|
--------7--------6--------|--9--------7--------6h--7--|
-----7--------7--------7--|--------7--------7---------|
--5--------5--------5-----|-----5--------5------------|
--------------------------|---------------------------|


  PM PM    PM PM    PM PM       PM PM    PM PM
  E  E  E  E  E  E  E  E     E  E  E  E  E  E  E   E
--------------------------|---------------------------|
--------------------------|---------------------------|
--------7--------6--------|--9--------7--------7p--6--|
-----7--------7--------7--|--------7--------7---------|
--5--------5--------5-----|-----5--------5------------|
--------------------------|---------------------------|


  PM PM    PM PM    PM PM       PM PM    PM PM
  E  E  E  E  E  E  E  E     E  E  E  E  E  E  E   E
--------------------------|---------------------------|
--------3--------2--------|--5--------3--------2h--3--|
--------------------------|---------------------------|
-----4--------4--------4--|--------4--------4---------|
--2--------2--------2-----|-----2--------2------------|
--------------------------|---------------------------|


  PM PM    PM PM    PM PM       PM PM    PM PM
  E  E  E  E  E  E  E  E     E  E  E  E  E  E  E   E
--------------------------|---------------------------|
--------------------------|---------------------------|
--------7--------6--------|--9--------7--------6h--7--|
--------------------------|---------------------------|
-----5--------5--------5--|--------5--------5---------|
--5--------5--------5-----|-----5--------5------------|


    PM PM    PM PM    PM PM       PM PM    PM PM
    E  E  E  E  E  E  E  E     E  E  E  E  E  E  E   E
|---------------------------|---------------------------|
|---------------------------|---------------------------|
|*--------7--------6--------|--9--------7--------6h--7--|
|*-----7--------7--------7--|--------7--------7---------|
|---5--------5--------5-----|-----5--------5------------|
|---------------------------|---------------------------|


  PM PM    PM PM    PM PM       PM PM    PM PM
  E  E  E  E  E  E  E  E     E  E  E  E  E  E  E   E
--------------------------|---------------------------|
--------------------------|---------------------------|
--------7--------6--------|--9--------7--------7p--6--|
-----7--------7--------7--|--------7--------7---------|
--5--------5--------5-----|-----5--------5------------|
--------------------------|---------------------------|


  PM PM    PM PM    PM PM       PM PM    PM PM
  E  E  E  E  E  E  E  E     E  E  E  E  E  E  E   E
--------------------------|---------------------------|
--------3--------2--------|--5--------3--------2h--3--|
--------------------------|---------------------------|
-----4--------4--------4--|--------4--------4---------|
--2--------2--------2-----|-----2--------2------------|
--------------------------|---------------------------|


  PM PM    PM PM    PM PM       PM PM    PM PM
  E  E  E  E  E  E  E  E     E  E  E  E  E  E  E   E
--------------------------|----------------------------||
--------------------------|----------------------------||
--------7--------6--------|--9--------7--------6h--7--*||
--------------------------|---------------------------*||
-----5--------5--------5--|--------5--------5----------||
--5--------5--------5-----|-----5--------5-------------||


                                       PM PM PM PM PM
   |----3----|         |---3---|
   Q    Q    Q    Q    E   E   E       S  S  E  E  E  H
----------------------------------||---------------------------|
----------------------------------||---------------------------|
----------------------------------||*--------------------------|
----------------------------------||*-----------------0--------|
--/5----4----2----0---------------||---0--0--0--0--0--0--------|
-----------------------2s--4s--2--||---0--0--0--0--0--0--------|


  W                   W                   W
-------------------|-------------------|-------------------|
-------------------|-------------------|-------------------|
-------------------|-------------------|-------------------|
--L----------------|--L----------------|--L----------------|
--L----------------|--L----------------|--L----------------|
--L----------------|--L----------------|--L----------------|


  PM PM PM PM    PM PM PM    PM PM PM PM    PM
  E  E  E  E  E  E  E  E     E  E  E  E  E  E  E   E
--------------------------|---------------------------|
--------------------------|---------------------------|
--------------------------|---------------------------|
--------------7-----------|--------------7-----7h--9--|
--5--5--5--5-----5--5--5--|--5--5--5--5-----5---------|
--------------------------|---------------------------|


  PM PM PM PM    PM PM PM       PM    PM
  E  E  E  E  E  E  E  E     E  E  E  E  E   E  E   E
--------------------------|-----------------------------||
--------------------------|-----------------------------||
--------------------------|----------------------------*||
--------------5-----------|--7-----5-----4h--5--4h--5--*||
--4--4--4--4-----4--4--4--|-----4-----4-----------------||
--------------------------|-----------------------------||


  PM PM PM PM PM
  S  S  E  E  E  E  E  E  E     E  E  E  E  E  E  E  E
-----------------------------|--------------------------|
-----------------8--8--8--8--|--7--7--7--7--5--5--5--5--|
-----------------7--7--7--7--|--7--7--7--7--7--7--7--7--|
-----------------5--5--5--5--|--5--5--5--5--5--5--5--5--|
--5--5--5--5--5--5-----------|--------------------------|
--5--5--5--5--5--5-----------|--------------------------|


  PM   PM   PM                                   PM PM PM PM PM
  |----3----|
  Q    Q    Q    H           W                   S  S  E  E  E  E  E  E  E
--------------------------|-------------------|-----------------------------|
--------------------------|-------------------|-----------------8--8--8--8--|
--------------------------|-------------------|-----------------7--7--7--7--|
-----------------0--------|--L----------------|-----------------5--5--5--5--|
--0----0----0----0--------|--L----------------|--5--5--5--5--5--5-----------|
--0----0----0----0--------|--L----------------|--5--5--5--5--5--5-----------|


                             PM PM PM PM PM PM PM PM
  E  E  E  E  E  E  E  E     E  E  E  E  E  E  E  E     Q    H.
--------------------------|--------------------------|--------------------|
--7--7--7--7--5--5--5--5--|--------------------------|--------------------|
--7--7--7--7--7--7--7--7--|--------------------------|--------------------|
--5--5--5--5--5--5--5--5--|--------------------------|--7-----------------|
--------------------------|--7--7--7--7--7--7--7--7--|--7-----------------|
--------------------------|--7--7--7--7--7--7--7--7--|--7-----------------|


    PM PM    PM PM    PM PM       PM PM    PM PM
    E  E  E  E  E  E  E  E     E  E  E  E  E  E  E   E
|---------------------------|---------------------------|
|---------------------------|---------------------------|
|*--------7--------6--------|--9--------7--------6h--7--|
|*-----7--------7--------7--|--------7--------7---------|
|---5--------5--------5-----|-----5--------5------------|
|---------------------------|---------------------------|


  PM PM    PM PM    PM PM       PM PM    PM PM
  E  E  E  E  E  E  E  E     E  E  E  E  E  E  E   E
--------------------------|---------------------------|
--------------------------|---------------------------|
--------7--------6--------|--9--------7--------7p--6--|
-----7--------7--------7--|--------7--------7---------|
--5--------5--------5-----|-----5--------5------------|
--------------------------|---------------------------|


  PM PM    PM PM    PM PM       PM PM    PM PM
  E  E  E  E  E  E  E  E     E  E  E  E  E  E  E   E
--------------------------|---------------------------|
--------3--------2--------|--5--------3--------2h--3--|
--------------------------|---------------------------|
-----4--------4--------4--|--------4--------4---------|
--2--------2--------2-----|-----2--------2------------|
--------------------------|---------------------------|


  PM PM    PM PM    PM PM       PM PM    PM PM
  E  E  E  E  E  E  E  E     E  E  E  E  E  E  E   E
--------------------------|----------------------------||
--------------------------|----------------------------||
--------7--------6--------|--9--------7--------6h--7--*||
--------------------------|---------------------------*||
-----5--------5--------5--|--------5--------5----------||
--5--------5--------5-----|-----5--------5-------------||


                                       PM PM PM PM PM
   |----3----|         |---3---|
   Q    Q    Q    Q    E   E   E       S  S  E  E  E  H
----------------------------------||---------------------------|
----------------------------------||---------------------------|
----------------------------------||*--------------------------|
----------------------------------||*-----------------0--------|
--/5----4----2----0---------------||---0--0--0--0--0--0--------|
-----------------------2s--4s--2--||---0--0--0--0--0--0--------|


  W                   W                   W
-------------------|-------------------|-------------------|
-------------------|-------------------|-------------------|
-------------------|-------------------|-------------------|
--L----------------|--L----------------|--L----------------|
--L----------------|--L----------------|--L----------------|
--L----------------|--L----------------|--L----------------|


  PM PM PM PM    PM PM PM    PM PM PM PM    PM
  E  E  E  E  E  E  E  E     E  E  E  E  E  E  E   E
--------------------------|---------------------------|
--------------------------|---------------------------|
--------------------------|---------------------------|
--------------7-----------|--------------7-----7h--9--|
--5--5--5--5-----5--5--5--|--5--5--5--5-----5---------|
--------------------------|---------------------------|


  PM PM PM PM    PM PM PM       PM    PM
  E  E  E  E  E  E  E  E     E  E  E  E  E   E  E   E
--------------------------|-----------------------------||

--------------------------|-----------------------------||
--------------------------|----------------------------*||
--------------5-----------|--7-----5-----4h--5--4h--5--*||
--4--4--4--4-----4--4--4--|-----4-----4-----------------||
--------------------------|-----------------------------||


  PM PM PM PM PM
  S  S  E  E  E  E  E  E  E     E  E  E  E  E  E  E  E
-----------------------------|--------------------------|
-----------------8--8--8--8--|--7--7--7--7--5--5--5--5--|
-----------------7--7--7--7--|--7--7--7--7--7--7--7--7--|
-----------------5--5--5--5--|--5--5--5--5--5--5--5--5--|
--5--5--5--5--5--5-----------|--------------------------|
--5--5--5--5--5--5-----------|--------------------------|


  PM   PM   PM                                   PM PM PM PM PM
  |----3----|
  Q    Q    Q    H           W                   S  S  E  E  E  E  E  E  E
--------------------------|-------------------|-----------------------------|
--------------------------|-------------------|-----------------8--8--8--8--|
--------------------------|-------------------|-----------------7--7--7--7--|
-----------------0--------|--L----------------|-----------------5--5--5--5--|
--0----0----0----0--------|--L----------------|--5--5--5--5--5--5-----------|
--0----0----0----0--------|--L----------------|--5--5--5--5--5--5-----------|


                             PM PM PM PM PM PM PM PM
  E  E  E  E  E  E  E  E     E  E  E  E  E  E  E  E     Q    H.
--------------------------|--------------------------|--------------------|
--7--7--7--7--5--5--5--5--|--------------------------|--------------------|
--7--7--7--7--7--7--7--7--|--------------------------|--------------------|
--5--5--5--5--5--5--5--5--|--------------------------|--7-----------------|
--------------------------|--7--7--7--7--7--7--7--7--|--7-----------------|
--------------------------|--7--7--7--7--7--7--7--7--|--7-----------------|


    PM PM    PM PM    PM PM       PM PM    PM PM
    E  E  E  E  E  E  E  E     E  E  E  E  E  E  E   E
|---------------------------|---------------------------|
|---------------------------|---------------------------|
|*--------7--------6--------|--9--------7--------6h--7--|
|*-----7--------7--------7--|--------7--------7---------|
|---5--------5--------5-----|-----5--------5------------|
|---------------------------|---------------------------|


  PM PM    PM PM    PM PM       PM PM    PM PM
  E  E  E  E  E  E  E  E     E  E  E  E  E  E  E   E
--------------------------|---------------------------|
--------------------------|---------------------------|
--------7--------6--------|--9--------7--------7p--6--|
-----7--------7--------7--|--------7--------7---------|
--5--------5--------5-----|-----5--------5------------|
--------------------------|---------------------------|


  PM PM    PM PM    PM PM       PM PM    PM PM
  E  E  E  E  E  E  E  E     E  E  E  E  E  E  E   E
--------------------------|---------------------------|
--------3--------2--------|--5--------3--------2h--3--|
--------------------------|---------------------------|
-----4--------4--------4--|--------4--------4---------|
--2--------2--------2-----|-----2--------2------------|
--------------------------|---------------------------|


  PM PM    PM PM    PM PM       PM PM    PM PM
  E  E  E  E  E  E  E  E     E  E  E  E  E  E  E   E
--------------------------|----------------------------||
--------------------------|----------------------------||
--------7--------6--------|--9--------7--------6h--7--*||
--------------------------|---------------------------*||
-----5--------5--------5--|--------5--------5----------||
--5--------5--------5-----|-----5--------5-------------||


   |----3----|         |---3---|
   Q    Q    Q    Q    E   E   E      E   E   E   E   Q     E   E
----------------------------------|--------------------------------|
----------------------------------|--15------------------------15--|
----------------------------------|----------14--------------------|
----------------------------------|------12------12--12----12------|
--/5----4----2----0---------------|--------------------------------|
-----------------------2s--4s--2--|--------------------------------|


   E   E   E   Q     E   S   S   E      E   E   E   E   Q     E   E
------------------------------------|--------------------------------|
------------------------------------|--15------------------------15--|
------14----------------------------|----------14--------------------|
--12------12--14----12--12h-14p-12--|------12------12--12----12------|
------------------------------------|--------------------------------|
------------------------------------|--------------------------------|


   E   E   E   Q     E   S   S   E      E   E   E   E   Q     E   E
------------------------------------|--------------------------------|
------------------------------------|--15------------------------15--|
------14----------------------------|----------14--------------------|
--12------12--14----12--12h-14p-12--|------12------12--12----12------|
------------------------------------|--------------------------------|
------------------------------------|--------------------------------|


   E   E   E   Q     E   S   S   E      E   E   E   E   Q     E   E
------------------------------------|--------------------------------|
------------------------------------|--15------------------------15--|
------14----------------------------|----------14--------------------|
--12------12--14----12--12h-14p-12--|------12------12--12----12------|
------------------------------------|--------------------------------|
------------------------------------|--------------------------------|


   E   E   E   Q     E   S   S   E     W                   W
------------------------------------|-------------------|-------------------|
------------------------------------|-------------------|-------------------|
------14----------------------------|-------------------|-------------------|
--12------12--14----12--12h-14p-12--|--0----------------|--L----------------|
------------------------------------|--0----------------|--L----------------|
------------------------------------|--0----------------|--L----------------|


  W                   W                   W                   W
-------------------|-------------------|-------------------|-------------------|
-------------------|-------------------|-------------------|-------------------|
-------------------|-------------------|-------------------|-------------------|
--L----------------|--L----------------|--L----------------|--L----------------|
--L----------------|--L----------------|--L----------------|--L----------------|
--L----------------|--L----------------|--L----------------|--L----------------|


                                          PM PM    PM PM    PM PM
  W                   W                   E  E  E  E  E  E  E  E
-------------------|-------------------|--------------------------|
-------------------|-------------------|--------------------------|
-------------------|-------------------|--------7--------6--------|
--L----------------|--L----------------|-----7--------7--------7--|
--L----------------|--L----------------|--5--------5--------5-----|
--L----------------|--L----------------|--------------------------|


     PM PM    PM PM           PM PM    PM PM    PM PM
  E  E  E  E  E  E  E   E     E  E  E  E  E  E  E  E
---------------------------|--------------------------|
---------------------------|--------------------------|
--9--------7--------6h--7--|--------7--------6--------|
--------7--------7---------|-----7--------7--------7--|
-----5--------5------------|--5--------5--------5-----|
---------------------------|--------------------------|


     PM PM    PM PM           PM PM    PM PM    PM PM
  E  E  E  E  E  E  E   E     E  E  E  E  E  E  E  E
---------------------------|--------------------------|
---------------------------|--------3--------2--------|
--9--------7--------7p--6--|--------------------------|
--------7--------7---------|-----4--------4--------4--|
-----5--------5------------|--2--------2--------2-----|
---------------------------|--------------------------|


     PM PM    PM PM           PM PM    PM PM    PM PM
  E  E  E  E  E  E  E   E     E  E  E  E  E  E  E  E
---------------------------|--------------------------|
--5--------3--------2h--3--|--------------------------|
---------------------------|--------7--------6--------|
--------4--------4---------|--------------------------|
-----2--------2------------|-----5--------5--------5--|
---------------------------|--5--------5--------5-----|


     PM PM    PM PM           PM PM    PM PM    PM PM
  E  E  E  E  E  E  E   E     E  E  E  E  E  E  E  E
---------------------------|--------------------------|
---------------------------|--------------------------|
--9--------7--------6h--7--|--------7--------6--------|
---------------------------|-----7--------7--------7--|
--------5--------5---------|--5--------5--------5-----|
-----5--------5------------|--------------------------|


     PM PM    PM PM           PM PM    PM PM    PM PM
  E  E  E  E  E  E  E   E     E  E  E  E  E  E  E  E
---------------------------|--------------------------|
---------------------------|--------------------------|
--9--------7--------6h--7--|--------7--------6--------|
--------7--------7---------|-----7--------7--------7--|
-----5--------5------------|--5--------5--------5-----|
---------------------------|--------------------------|


     PM PM    PM PM           PM PM    PM PM    PM PM
  E  E  E  E  E  E  E   E     E  E  E  E  E  E  E  E
---------------------------|--------------------------|
---------------------------|--------3--------2--------|
--9--------7--------7p--6--|--------------------------|
--------7--------7---------|-----4--------4--------4--|
-----5--------5------------|--2--------2--------2-----|
---------------------------|--------------------------|


     PM PM    PM PM           PM PM    PM PM    PM PM
  E  E  E  E  E  E  E   E     E  E  E  E  E  E  E  E
---------------------------|--------------------------|
--5--------3--------2h--3--|--------------------------|
---------------------------|--------7--------6--------|
--------4--------4---------|--------------------------|
-----2--------2------------|-----5--------5--------5--|
---------------------------|--5--------5--------5-----|


     PM PM    PM PM           PM PM    PM PM    PM PM
  E  E  E  E  E  E  E   E     E  E  E  E  E  E  E  E
---------------------------|--------------------------|
---------------------------|--------------------------|
--9--------7--------6h--7--|--------7--------6--------|
---------------------------|-----7--------7--------7--|
--------5--------5---------|--5--------5--------5-----|
-----5--------5------------|--------------------------|


     PM PM    PM PM           PM PM    PM PM    PM PM
  E  E  E  E  E  E  E   E     E  E  E  E  E  E  E  E
---------------------------|--------------------------|
---------------------------|--------------------------|
--9--------7--------6h--7--|--------7--------6--------|
--------7--------7---------|-----7--------7--------7--|
-----5--------5------------|--5--------5--------5-----|
---------------------------|--------------------------|


     PM PM    PM PM           PM PM    PM PM    PM PM
  E  E  E  E  E  E  E   E     E  E  E  E  E  E  E  E
---------------------------|--------------------------|
---------------------------|--------3--------2--------|
--9--------7--------7p--6--|--------------------------|
--------7--------7---------|-----4--------4--------4--|
-----5--------5------------|--2--------2--------2-----|
---------------------------|--------------------------|


     PM PM    PM PM           PM PM    PM PM    PM PM
  E  E  E  E  E  E  E   E     E  E  E  E  E  E  E  E
---------------------------|--------------------------|
--5--------3--------2h--3--|--------------------------|
---------------------------|--------7--------6--------|
--------4--------4---------|--------------------------|
-----2--------2------------|-----5--------5--------5--|
---------------------------|--5--------5--------5-----|


     PM PM    PM PM           PM PM    PM PM    PM PM
  E  E  E  E  E  E  E   E     E  E  E  E  E  E  E  E
---------------------------|--------------------------|
---------------------------|--------------------------|
--9--------7--------6h--7--|--------7--------6--------|
---------------------------|-----7--------7--------7--|
--------5--------5---------|--5--------5--------5-----|
-----5--------5------------|--------------------------|


     PM PM    PM PM           PM PM    PM PM    PM PM
  E  E  E  E  E  E  E   E     E  E  E  E  E  E  E  E
---------------------------|--------------------------|
---------------------------|--------------------------|
--9--------7--------6h--7--|--------7--------6--------|
--------7--------7---------|-----7--------7--------7--|
-----5--------5------------|--5--------5--------5-----|
---------------------------|--------------------------|


     PM PM    PM PM           PM PM    PM PM    PM PM
  E  E  E  E  E  E  E   E     E  E  E  E  E  E  E  E
---------------------------|--------------------------|
---------------------------|--------3--------2--------|
--9--------7--------7p--6--|--------------------------|
--------7--------7---------|-----4--------4--------4--|
-----5--------5------------|--2--------2--------2-----|
---------------------------|--------------------------|


     PM PM    PM PM           PM PM    PM PM    PM PM
  E  E  E  E  E  E  E   E     E  E  E  E  E  E  E  E
---------------------------|--------------------------|
--5--------3--------2h--3--|--------------------------|
---------------------------|--------7--------6--------|
--------4--------4---------|--------------------------|
-----2--------2------------|-----5--------5--------5--|
---------------------------|--5--------5--------5-----|


     PM PM    PM PM             PM PM    PM PM    PM PM
  E  E  E  E  E  E  E   E       E  E  E  E  E  E  E  E
---------------------------||---------------------------|
---------------------------||---------------------------|
--9--------7--------6h--7--||*--------7--------6--------|
---------------------------||*-----7--------7--------7--|
--------5--------5---------||---5--------5--------5-----|
-----5--------5------------||---------------------------|


     PM PM    PM PM           PM PM    PM PM    PM PM
  E  E  E  E  E  E  E   E     E  E  E  E  E  E  E  E
---------------------------|--------------------------|
---------------------------|--------------------------|
--9--------7--------6h--7--|--------7--------6--------|
--------7--------7---------|-----7--------7--------7--|
-----5--------5------------|--5--------5--------5-----|
---------------------------|--------------------------|


     PM PM    PM PM           PM PM    PM PM    PM PM
  E  E  E  E  E  E  E   E     E  E  E  E  E  E  E  E
---------------------------|--------------------------|
---------------------------|--------3--------2--------|
--9--------7--------7p--6--|--------------------------|
--------7--------7---------|-----4--------4--------4--|
-----5--------5------------|--2--------2--------2-----|
---------------------------|--------------------------|


     PM PM    PM PM           PM PM    PM PM    PM PM
  E  E  E  E  E  E  E   E     E  E  E  E  E  E  E  E
---------------------------|--------------------------|
--5--------3--------2h--3--|--------------------------|
---------------------------|--------7--------6--------|
--------4--------4---------|--------------------------|
-----2--------2------------|-----5--------5--------5--|
---------------------------|--5--------5--------5-----|


     PM PM    PM PM             PM PM    PM PM    PM PM
  E  E  E  E  E  E  E   E   8x  E  E  E  E  E  E  E  E
----------------------------||--------------------------|
----------------------------||--------------------------|
--9--------7--------6h--7--*||--------7--------6--------|
---------------------------*||-----7--------7--------7--|
--------5--------5----------||--5--------5--------5-----|
-----5--------5-------------||--------------------------|


     PM PM    PM PM           PM PM    PM PM    PM PM
  E  E  E  E  E  E  E   E     E  E  E  E  E  E  E  E
---------------------------|--------------------------|
---------------------------|--------------------------|
--9--------7--------6h--7--|--------7--------6--------|
--------7--------7---------|-----7--------7--------7--|
-----5--------5------------|--5--------5--------5-----|
---------------------------|--------------------------|


     PM PM    PM PM           PM PM    PM PM    PM PM
  E  E  E  E  E  E  E   E     E  E  E  E  E  E  E  E
---------------------------|--------------------------|
---------------------------|--------3--------2--------|
--9--------7--------7p--6--|--------------------------|
--------7--------7---------|-----4--------4--------4--|
-----5--------5------------|--2--------2--------2-----|
---------------------------|--------------------------|


     PM PM    PM PM           PM PM    PM PM    PM PM
  E  E  E  E  E  E  E   E     E  E  E  E  E  E  E  E
---------------------------|--------------------------|
--5--------3--------2h--3--|--------------------------|
---------------------------|--------7--------6--------|
--------4--------4---------|--------------------------|
-----2--------2------------|-----5--------5--------5--|
---------------------------|--5--------5--------5-----|


     PM PM    PM PM           PM PM    PM PM    PM PM
  E  E  E  E  E  E  E   E     E  E  E  E  E  E  E  E
---------------------------|--------------------------|
---------------------------|--------------------------|
--9--------7--------6h--7--|--------7--------6--------|
---------------------------|-----7--------7--------7--|
--------5--------5---------|--5--------5--------5-----|
-----5--------5------------|--------------------------|


     PM PM    PM PM           PM PM    PM PM    PM PM
  E  E  E  E  E  E  E   E     E  E  E  E  E  E  E  E
---------------------------|--------------------------|
---------------------------|--------------------------|
--9--------7--------6h--7--|--------7--------6--------|
--------7--------7---------|-----7--------7--------7--|
-----5--------5------------|--5--------5--------5-----|
---------------------------|--------------------------|


     PM PM    PM PM           PM PM    PM PM    PM PM
  E  E  E  E  E  E  E   E     E  E  E  E  E  E  E  E
---------------------------|--------------------------|
---------------------------|--------3--------2--------|
--9--------7--------7p--6--|--------------------------|
--------7--------7---------|-----4--------4--------4--|
-----5--------5------------|--2--------2--------2-----|
---------------------------|--------------------------|


     PM PM    PM PM           PM PM    PM PM    PM PM
  E  E  E  E  E  E  E   E     E  E  E  E  E  E  E  E
---------------------------|--------------------------|
--5--------3--------2h--3--|--------------------------|
---------------------------|--------7--------6--------|
--------4--------4---------|--------------------------|
-----2--------2------------|-----5--------5--------5--|
---------------------------|--5--------5--------5-----|


     PM PM    PM PM             PM PM    PM PM    PM PM
  E  E  E  E  E  E  E   E       E  E  E  E  E  E  E  E
---------------------------||---------------------------|
---------------------------||---------------------------|
--9--------7--------6h--7--||*--------7--------6--------|
---------------------------||*-----7--------7--------7--|
--------5--------5---------||---5--------5--------5-----|
-----5--------5------------||---------------------------|


     PM PM    PM PM           PM PM    PM PM    PM PM
  E  E  E  E  E  E  E   E     E  E  E  E  E  E  E  E
---------------------------|--------------------------|
---------------------------|--------------------------|
--9--------7--------6h--7--|--------7--------6--------|
--------7--------7---------|-----7--------7--------7--|
-----5--------5------------|--5--------5--------5-----|
---------------------------|--------------------------|


     PM PM    PM PM
  E  E  E  E  E  E  E   E
----------------------------||
----------------------------||
--9--------7--------6h--7--*||
--------7--------7---------*||
-----5--------5-------------||
----------------------------||


Alrighty then... thats it for now, i promise more tabs soon, if you have any questions 
comments, please do e-mail me at the_apple_king@hotmail.com.

Peace Out =] ...
Tap to rate this tab
# A B C D E F G H I J K L M N O P Q R S T U V W X Y Z