Song name
# A B C D E F G H I J K L M N O P Q R S T U V W X Y Z

Bullet For My Valentine - Intro tab

For Today
Intro
Drop C (CGCFAD)

 
D|-----8\10-5-------|-------------|-----8\10-5-------|-\13-12-------\17--------|
A|-5h6--------6-5-6-|-5-----------|-5h6--------6-5-6-|---------13--------18-17-|
F|------------------|---7-5-7-5---|------------------|------------14-----------|
C|------------------|-------------|------------------|-------------------------|
G|------------------|-----------8-|------------------|-------------------------|
C|------------------|-------------|------------------|-------------------------|

D|-----8\10-5-------|-------------|-----3h5p3-------|----------|
A|-5h6--------6-5-6-|-5-----------|-5h6-------6-5-6-|-3~~------|
F|------------------|---7-5-7-5---|-----------------|----------|
C|------------------|-------------|-----------------|----------|   x3
G|------------------|-----------8-|-----------------|----------|
C|------------------|-------------|-----------------|----------|


D|----------|------------|-----------|-----------|
A|----------|------------|-----------|-----------|
F|----------|------------|-----------|-----------|
C|0------00-|---00---00--|-0-0----00-|---00---00-|   x2
G|0------00-|---00---00--|-0-0----00-|---00---00-|
C|0------00-|---00---00--|-0-0----00-|---00---00-|
         ..     ..   ..    . .    ..     ..   ..

D|-------|
A|-------|
F|-------|
C|-0-----|
G|-0-----|
C|-0-----|
Tap to rate this tab
# A B C D E F G H I J K L M N O P Q R S T U V W X Y Z