Guitaretab - guitar tabs
Song name
# A B C D E F G H I J K L M N O P Q R S T U V W X Y Z

Bullet For My Valentine - Eye Of The Storm tab

-------------------------------------------------------------------------------
			     Eye Of The Storm - Bullet For My Valentine
-------------------------------------------------------------------------------
Tabbed by:Br3tt
Email:irishfool@myway.com

Tuning: Standard D 

OMG I dont ever get on this thing.... HERE YOU GO
THNX TO immyownstone & motoshredder!
i just took them both and completed it.. i freaking forgot to give credit... 

ok soo here how it is.. the solo is on here... the whole thing.. and yes you do
sweep the first part of it


Intro:

D|----------------------------------------------------------------|
A|----------------------------------------------------------------|
F|----------------------------------------------------------------|
C|------------------3-3-3-3-----------------3-3-3-3---------------|
G|---2-2-----2-2----1-1-1-1--2------2-2-----1-1-1-1---------------|
D|---0-0-----0-0-------------0------0-0---------------------------|
     . .     . .                    . .


Verse:
                           1.              2.
D|------------------------|---------------|------------------------|
A|------------------------|---------------|------------------------|
F|------------------------|---------------|------------------------|
C|------------------------|---------------|-------3-3-3-3----------|
G|------7-----5----3---2--|---2h3p2p0h2---|-------1-1-1-1----------|
D|--0-0---0-0----0---0----|xx-------------|--x-x-------------------|
    . .   . .    .   .

Pre-Chorus:

D|-------------------------------------------------------------------------|
A|-------------------------------------------------------------------------|
F|-------------------------------------------------------------------------|
C|-------------------------------------------------------------------------|
G|--2222222-2----2-2---222222-2---2-2--222222-2--2-2---222222-2---22222--2-|
D|--0000000-0----0-0---000000-0---0-0--000000-0--0-0---000000-0---00000--0-|
    .......            ......          ......          ......     .....


D|----------------------------------------------------------------|
A|----------------------------------------------------------------|
F|----------------------------------------------------------------|
C|-------------------------------------------------5--4--5--5/7b--|
G|-222222--2---2-2--222222-2---2-2--222222---2-2------------------|
D|-000000--0---0-0--000000-0---0-0--000000---0-0------------------|
   ......           ......          ......



Chorus:
                              !!!!!!Tremelo!!!!!!
D|-------------------------------------------------------------------------|
A|-------------------------------------------------------------------------|
F|-----------------------------T--T--T----T--T--T--------------------------|
C|-9--9999999--9--999--9-9----14-12-11---14-12-11----9--999999---9---999--9|
G|-7--7777777--7--777--7-7---------------------------7--777777---7---777--7|
D|-------------------------------------------------------------------------|
      .......     ...          . .  .    .  .  .        ......       ...


  

  1.             2.
D|----------|-----------------------|
A|----------|-----------------------|
F|--5-------|-----9--7--------------|
C|--5---5---|-----------10--9---7---|
G|--3---5---|-----------------------|
D|------3---|-----------------------|

verse:







reg verse 2x then..
                                    1.             2.
D|---------------------------------|---------------|----------------|
A|---------------------------------|---------------|----------------|
F|---------------------------------|---------------|----------------|
C|---------------------------------|---------------|----------------|
G|--------------10------9----7----5|---5h7p5p0h5---|-------8888-----|
D|-8888------0-0-----0-0---0----0--|-x-------------|-------6666-----|
   ....      . .     . .   .    .




Chorus:
                              !!!!!!Tremelo!!!!!!
D|-------------------------------------------------------------------------|
A|-------------------------------------------------------------------------|
F|-----------------------------T--T--T----T--T--T--------------------------|
C|-9--9999999--9--999--9-9----14-12-11---14-12-11----9--999999---9---999--9|
G|-7--7777777--7--777--7-7---------------------------7--777777---7---777--7|
D|-------------------------------------------------------------------------|
      .......     ...          . .  .    .  .  .        ......       ...


Bridge:


D|-------------------------------------------------------------------------|
A|-------------------------------------------------------------------------|
F|-------------------------------------------------------------------------|
C|-------------------------------------------------------------------------|
G|--7--------7--------7-------7-----10p7p0h7b--------------5---7---9---10-7|
D|----0-0-----0-0------0-0-----0-0-------------0-0-0-0-0-0---0---0---0-----|
      . .     . .      . .     . .             . . . . . .   .   .   .


 1.
D|--------------------------------------------------------------|
A|--------------------------------------------------------------|
F|--------------------------------------------------------------|
C|--------------------------------------------------------------|
G|--------------------10p7p0h5b--7p5p0h3b--5p3p0h3*-------------|
D|--0-0-0-0-0-0-0-0---------------------------------------------|
    . . . . . . . .


  2.
D|----------------------------------------------------------------------|
A|----------------------------------------------------------------------|
F|----------------------------------------------------------------------|
C|----------------------------------------------------------------------|
G|--------------------10p70h5b--7p5p0h3b--5p3p0h2b----------------------|
D|--0-0-0-0-0-0-0-0-----------------------------------------------------|
    . . . . . . . .

  3.
D|----------------------------------------------------------------------|
A|----------------------------------------------------------------------|
F|----------------------------------------------------------------------|
C|----------------------------------------------------------------------|
G|--------------------10p7p0h5b--7p5p0h3---5p3p0h2/10b------------------|
D|--0-0-0-0-0-0-0-0-----------------------------------------------------|
    . . . . . . . .

  






4.
D|----------------------------------------------------------------------|
A|----------------------------------------------------------------------|
F|----------------------------------------------------------------------|
C|----------------------------------------------------------------------|
G|-------------------10p7p0h7b--12p10p0h10b--14p12p0h12b----------------|
D|--0-0-0-0-0-0-0-0-----------------------------------------------------|
    . . . . . . . .


D||---19-15---------15--19-15---------15----19-15---------15--17-14----------14------|
A||---------17----17----------17----17------------17----17----------16-----16--------|
F||------------16----------------16------------------16-----------------14-----------|
C||----------------------------------------------------------------------------------|
G||----------------------------------------------------------------------------------|
D||----------------------------------------------------------------------------------|

[ Tab from: http://www.guitaretab.com/b/bullet-for-my-valentine/164453.html ]
D||---19-15---------15--19-15----------15----19-15---------15--17-14----------14-----|
A||---------17----17----------17----17-------------17----17----------16----16--------|
F||------------16----------------16-------------------16----------------14-----------|
C||----------------------------------------------------------------------------------|
G||----------------------------------------------------------------------------------|
D||----------------------------------------------------------------------------------|


D||---15-12---------12--15-12---------12-----15-12----------12--15-12---------12------|
A||---------13----13----------13----13-------------13----13-----------13----13--------|
F||------------12----------------12-------------------12-----------------12-----------|
C||-----------------------------------------------------------------------------------|
G||-----------------------------------------------------------------------------------|
D||-----------------------------------------------------------------------------------|


D||---15-12---------12--15-12---------12-----14-11---------11--14-11---------11--------|
A||---------13----13----------13----13-------------12----12----------12----12----------|
F||------------12----------------12-------------------11----------------11-------------|
C||------------------------------------------------------------------------------------|
G||------------------------------------------------------------------------------------|
D||------------------------------------------------------------------------------------|

    Gtr. 1 
D||--15------------------15-------------------15------------------14-------------------|
A||-----17----------17------17----------17-------17----------17------16----------16----|
F||--------16----16------------16----16-------------16----16------------14----14-------|
C||-----------17------------------17-------------------17------------------16----------|
G||------------------------------------------------------------------------------------|
D||------------------------------------------------------------------------------------|
   
   
   |Gtr. 2 
D||--19-15----------15---19-15----------15----19-15----------15---17-14----------14-----|
A||--------17----17------------17----17-------------17----17------------16----16--------|
F||-----------16------------------16-------------------16------------------14-----------|
C||-------------------------------------------------------------------------------------|
G||-------------------------------------------------------------------------------------|
D||-------------------------------------------------------------------------------------|


D||--15------------------15-------------------15------------------14-------------------|
A||-----17----------17------17----------17-------17----------17------16----------16----|
F||--------16----16------------16----16-------------16----16------------14----14-------|
C||-----------17------------------17-------------------17------------------16----------|
G||------------------------------------------------------------------------------------|
D||------------------------------------------------------------------------------------|
   |
   |
   |
   |
D||--19-15----------15---19-15----------15----19-15----------15---17-14----------14-----|
A||--------17----17------------17----17-------------17----17------------16----16--------|
F||-----------16------------------16-------------------16------------------14-----------|
C||-------------------------------------------------------------------------------------|
G||-------------------------------------------------------------------------------------|
D||-------------------------------------------------------------------------------------|




Tremelo pick all of these it sounds cooler
D|----------------------------------------------------------------------|
A|--12-13-15-13-15-17-15-17-19-20-19------------------------------------|
F|------------------------------------19-21b----------------------------|
C|----------------------------------------------------------------------|
G|----------------------------------------------------------------------|
D|----------------------------------------------------------------------|


D|----------15-----------------------15----------------------15---------|
A|-12h15p12----15-14-------12h15p12-----15-14-------12h15p12-----15-14--|
F|-------------------14b-----------------------12b----------------------|
C|----------------------------------------------------------------------|
G|----------------------------------------------------------------------|
D|----------------------------------------------------------------------|


  1.
D|----------------------------------------------------------------------|
A|----------------------------------------------------------------------|
F|-12-14-16-------------------------------------------------------------|
C|--------------9-7-5-7/9b----------------------------------------------|
G|----------------------------------------------------------------------|
D|----------------------------------------------------------------------|

  2.
D|----------------------------------------------------------------------|
A|----------------------------------------------------------------------|
F|-12-14-16-17-16b------------------------------------------------------|
C|----------------------------------------------------------------------|
G|----------------------------------------------------------------------|
D|----------------------------------------------------------------------|


Verse
D|------------------------|---------------|------------------------|
A|------------------------|---------------|------------------------|
F|------------------------|---------------|------------------------|
C|------------------------|---------------|-------3-3-3-3----------|
G|------7-----5----3---2--|---2h3p2p0h2---|-------1-1-1-1----------|
D|--0-0---0-0----0---0----|xx-------------|--x-x-------------------|
    . .   . .    .   .


pre-chorus
D|-------------------------------------------------------------------------|
A|-------------------------------------------------------------------------|
F|-------------------------------------------------------------------------|
C|-------------------------------------------------------------------------|
G|--2222222-2----2-2---222222-2---2-2--222222-2--2-2---222222-2---22222--2-|
D|--0000000-0----0-0---000000-0---0-0--000000-0--0-0---000000-0---00000--0-|
    .......            ......          ......          ......     .....


D|----------------------------------------------------------------|
A|----------------------------------------------------------------|
F|----------------------------------------------------------------|
C|-------------------------------------------------5--4--5--5/7b--|
G|-222222--2---2-2--222222-2---2-2--222222---2-2------------------|
D|-000000--0---0-0--000000-0---0-0--000000---0-0------------------|



Chorus

D|-------------------------------------------------------------------------|
A|-------------------------------------------------------------------------|
F|-----------------------------T--T--T----T--T--T--------------------------|
C|-9--9999999--9--999--9-9----14-12-11---14-12-11----9--999999---9---999--9|
G|-7--7777777--7--777--7-7---------------------------7--777777---7---777--7|
D|-------------------------------------------------------------------------|
      .......     ...          . .  .    .  .  .        ......       ...


   
D|----------------------------------|
A|----------------------------------|
F|----------------------------------|
C|--10-9-7--------------------------|
G|----------10-9b-------------------|
D|----------------------------------|



D|--------------------------|
A|--------------------------|
F|--------------------------|
C|-------3-3-3-3------------|
G|--2----1-1-1-1---2--------|
D|--0--------------0--------|

And thatís it
Related for Eye Of The Storm tab