Song name
# A B C D E F G H I J K L M N O P Q R S T U V W X Y Z

Bullet For My Valentine - Watching Us Die Tonight tab

Bullet For My Valentine
"Watching Us Die Tonight"
Scream, Aim, Fire! Deluxe Album
Tabbed By L. Yarib.

Intro
e|---------------------------|
B|--4h5-5-5--2h4-4-4--2h4-4--|
G|---------------------------|
D|---------------------------|
A|---------------------------|
E|---------------------------|

e|---------------------------|
B|--2h4-4-4--2h4-4-4--2h4-4--|
G|---------------------------| x3
D|---------------------------|
A|---------------------------|
E|---------------------------|

e|---------------------------|
B|--0h2-2-2--0h2-2-2--0h2-2--|
G|---------------------------| x2
D|---------------------------|
A|---------------------------|
E|---------------------------|

e|---------------------------|
B|--2h4-4-4--2h4-4-4--2h4-4--|
G|---------------------------| x2
D|---------------------------|
A|---------------------------|
E|---------------------------|

e|---------------------------|
B|--4h5-5-5--4h5-5-5--4h5-5--|
G|---------------------------|
D|---------------------------|
A|---------------------------|
E|---------------------------|

e|---------------------------------|
B|--4h5-5-5--4h5-5-5--4h5-5p4-4h5--|
G|---------------------------------|
D|---------------------------------|
A|---------------------------------|
E|---------------------------------|

e|---------------------------|
B|--4h5-5-5--4h5-5-5--4h5-5--|
G|---------------------------| x2
D|---------------------------|
A|---------------------------|
E|---------------------------|

e|---------------------------|
B|--0h2-2-2--0h2-2-2--0h2-2--|
G|---------------------------| x2
D|---------------------------|
A|---------------------------|
E|---------------------------|

e|---------------------------|
B|--2h4-4-4--2h4-4-4--2h4-4--|
G|---------------------------|
D|---------------------------|
A|---------------------------|
E|---------------------------|

e|-----------------------------------------------------------------|
B|--4p2-4p2-4p2-4p2-4p2-4p2-4~(whammer//palanca)-------------------|
G|-----------------------------------------------------------------|
D|-----------------------------------------------------------------|
A|-----------------------------------------------------------------|
E|-----------------------------------------------------------------|


Verse x2
e|---------------------------------|
B|---------------------------------|
G|---------------------------------| x2
D|---------------------------------|
A|------7-----7---7---7-----8--7~--|
E|--5-5---5-5---5---5----5---5-----|

e|---------------------------------|
B|---------------------------------|
G|---------------------------------|
D|---------------------------------|
A|------7-----7---7---7-----3--5---|
E|--5-5---5-5---5---5----5---------|

e|----------------------------------|
B|----------------------------------|
G|----------------------------------|
D|----------------------------------|
A|------3-----3---3-----5-----5---5-|
E|--1-1---1-1---1---3-3---3-3---3---|

PreChorus Part 1  x3
e|--------------------------------------|
B|--10p0--9p0--7p0--5p0--10p0--9p0--7p0-|
G|--------------------------------------|
D|--------------------------------------|
A|--------------------------------------|
E|--------------------------------------|

e|---------------------------|
B|---------------------------|
G|---------------------------|
D|------------5--------------|
A|7-----3-----3----5---------|
E|5-----1----------3---------|

PreChorus Part 2
e|--------------------------------------|
B|--10p0--9p0--7p0--5p0--10p0--9p0--7p0-|
G|--------------------------------------|
D|--------------------------------------|
A|--------------------------------------|
E|--------------------------------------|

e|-----|
B|-----|
G|-----|
D|--5--|
A|--5--|
E|--3--|


Chorus x2
e|--7--------------|
B|-----------------|
G|-----------------|
D|--7---7---3---5--|
A|--7---7---3---5--|
D|--5---5---1---3--|

Interlude
e|-----------------------------|
B|-----------------------------|
G|-----------------------------|
D|-----------------------------|
A|--5/7-------7------7----7-7--|
D|--3/5--5-5--5--5-5-5----5-5--|

e|-------------|
B|-------------|
G|-------------|
D|-------------|
A|--10---10\0--|
E|---8---------|

Verse x2
PreChorus Part 1  x3
PreChorus Part 2
Chorus X2

Bridge
e|---------------------------------------------|
B|---------------------------------------------|
G|---------------------------------------------| x2
D|--/7~---5-7-7/9~---7~-9p7p5-5~---3-5-5/7--5--|
A|---------------------------------------------|
E|---------------------------------------------|

e|------------------------------------------------------|
B|--/10~---8-10-10/12~---10---12p10p8-8~---6-8-8/10--8--|
G|------------------------------------------------------|
D|------------------------------------------------------|
A|------------------------------------------------------|
E|------------------------------------------------------|

e|---------------------------------------------------------------------|
B|--/10~---8-10-10/12~---10---12p10p8-8~---6-8-8/10--12--14\0(slowly)--|
G|---------------------------------------------------------------------|
D|----------------------------------------------------9--11\0(slowly)--|
A|---------------------------------------------------------------------|
E|---------------------------------------------------------------------|

PreChorus Part 1  x3
PreChorus Part 2
Chorus X2

Verse

Outro
e|---------------------------------|
B|---------------------------------|
G|---------------------------------| x2
D|---------------------------------|
A|------7-----7---7---7-----8--7~--|
E|--5-5---5-5---5---5----5---5-----|

e|------------------------------------------------|
B|------------------------------------------------|
G|------------------------------------------------|
D|------------------------------------------------|
A|------7-----7---7---7-----3--5--0/7~-8p7p5--5~--|
E|--5-5---5-5---5---5----5------------------------|

e|--------------------------|
B|--/10--8--5--13--12-8-10--|
G|--------------------------|
D|---/7--5--3--10--9--5--7--|
A|--------------------------|
E|--------------------------|
Tap to rate this tab
# A B C D E F G H I J K L M N O P Q R S T U V W X Y Z