Guitaretab - guitar tabs
Song name
# A B C D E F G H I J K L M N O P Q R S T U V W X Y Z

Bullet For My Valentine - Hearts Burst Into Fire tab

Hearts Burst Into Fire
Bullet For My Valentine
Scream Aim Fire
Drop C- CGCFAD

-Intro-
Padge- Clean
D|---------3-----3-----3-----3--------------0-------|
A|-----6-----6-----6-----6-----6--------6-----6-----|
F|-------5-----5-----5-----5-----5--------5-----5---|
C|------------------------------------0-----------0-|
G|---3----------------------------------------------|
C|-3--------------------------------0---------------|

D|---------3-----3-----3-----3--------------0--------0-------|
A|-----6-----6-----6-----6-----6--------6-----6--------6-----|
F|-------5-----5-----5-----5-----5--------5-----5--------5---|
C|------------------------------------0-----------0--------0-|
G|---3-------------------------------------------------------|
C|-3--------------------------------0------------------------|

Matt's Intro Solo
Distortion
D|-----------T(with-finger)----------------------|
A|-x-x-5---6-13~~~~~~-r6-----5-----6---1/3~~~~~~-|
F|-----------------------------------------------|
C|-----------------------------------------------|
G|-----------------------------------------------|
C|-----------------------------------------------|
Padge
D|---------3-----3-----3-----3--------------0-------|
A|-----6-----6-----6-----6-----6--------6-----6-----|
F|-------5-----5-----5-----5-----5--------5-----5---|
C|------------------------------------0-----------0-|
G|---3----------------------------------------------|
C|-3--------------------------------0---------------|

Matt
D|--------------------------------------------|
A|-1-1~~~~~~~~~~~--3~------5~------6~------8~-|
F|--------------------------------------------|
C|--------------------------------------------|
G|--------------------------------------------|
C|--------------------------------------------|
Padge
D|---------3-----3-----3-----3--------------0--------0-------|
A|-----6-----6-----6-----6-----6--------6-----6--------6-----|
F|-------5-----5-----5-----5-----5--------5-----5--------5---|
C|------------------------------------0-----------0--------0-|
G|---3-------------------------------------------------------|
C|-3--------------------------------0------------------------|

Matt        (finger tapping)
D|---------T----------T----------T----------T------------------T---------T---------|
A|-6h8p6h8-10p6h8p6h8-10p6h8p6h8-10p6h8p6h8-10p6h8p6h8-5h6p5h6-8p5h6p5h6-8p5h6p5h6-|
F|---------------------------------------------------------------------------------|
C|---------------------------------------------------------------------------------|
G|---------------------------------------------------------------------------------|
C|---------------------------------------------------------------------------------|

-T---------T----------|
-8p5h6p5h6-8p5h6p5h6\-|
----------------------|
----------------------|
----------------------|
----------------------|

Padge- Dist.
D|--------------------------------------------------|
A|--------------------------------------------------|
F|-3--3--3-3----3--3--3-3---------------------------|
C|-3--3--3-3----3--3--3-3----0--0----0----0--0----0-|
G|-1--1--1-1----1--1--1-1----0--0--0-0----0--0--0-0-|
C|---------------------------0--0--0-0----0--0--0-0-|
                             pm -  -      -  -  -
Matt
D|--------------------------------------------------------|
A|-/3~~-5~~-6*~~---/10-8-6-8-10-11-10~~~~~~-6~~~~~~~~~~~~-|
F|--------------5-----------------------------------------|
C|--------------------------------------------------------|
G|--------------------------------------------------------|
C|--------------------------------------------------------|
Padge
D|----------------------------------------|
A|----------------------------------------|
F|-3--3--3-3----3--3--3-3-----7----5~~~~~-|
C|-3--3--3-3----3--3--3-3-----7----5~~~~~-|
G|-1--1--1-1----1--1--1-1-----5----3~~~~~-|
C|----------------------------------------|

D|-------------------------------------------------|
A|-6-----------6-5----------5-6----------6-5-----6-|
F|-5-----------5-5----------5-5----------5-5-----5-|
C|-3-----------3-3----------3-3----------3-3-----3-|
G|-3--3--3-3-3-----3--3-3-3-----3--3-3-3-----3-3---|
C|-3--3--3-3-3-----3--3-3-3-----3--3-3-3-----3-3---|
      -  - - -     -  - - -     -  - - -     - -

D|-5-----------5-3----------3-5----------5--3--5--3--5-|
A|-6-----------6-5----------5-6----------6--5--6--5--6-|
F|-3-----------3-3----------3-3----------3--3--3--3--3-|
C|-0-----------0-0----------0-0----------0--0--0--0--0-|
G|-0--0--0-0-0-----0--0-0-0-----0--0-0-0---------------|
C|-0--0--0-0-0-----0--0-0-0-----0--0-0-0---------------|
      -  - - -     -  - - -     -  - - -

-Verse-
Matt & Padge
D||--------------------------------------------------|
A||o-6-----------6-5----------5-6----------6-5-----6-|
F||--5-----------5-5----------5-5----------5-5-----5-|
C||--3-----------3-3----------3-3----------3-3-----3-|
G||o-3--3--3-3-3-----3--3-3-3-----3--3-3-3-----3-3---|
C||--3--3--3-3-3-----3--3-3-3-----3--3-3-3-----3-3---|
        -  - - -     -  - - -     -  - - -     - -
-"I'm comin' home, I've been gone for far too long...
-"I'm leavin', have I fucked things up again...

Matt
D|-----------------------------------------------------||
A|-10----------10-8---------8-10---------10-8-10-8-10-o||
F|-10----------10-9---------9-10---------10-9-10-9-10--||
C|-----------------------------------------------------||
G|----0--0-0-0-----0--0-0-0-----0--0-0-0--------------o||
C|----0--0-0-0-----0--0-0-0-----0--0-0-0---------------||
      -  - - -     -  - - -     -  - - -
Padge
D|------------------------------------------------------||
A|-6-----------6-5----------5-6----------6--5--6--5--6-o||
F|-5-----------5-5----------5-5----------5--5--5--5--5--||
C|-0-----------0-0----------0-0----------0--0--0--0--0--||
G|-0--0--0-0-0-----0--0-0-0-----0--0-0-0---------------o||
C|-0--0--0-0-0-----0--0-0-0-----0--0-0-0----------------||
      -  - - -     -  - - -     -  - - -
...Do you remember me at all?"
...I'm dreamin', too much time without you spent"

-Pre Chorus-
Matt & Padge
D|---------------------------------------------------|
A|---------------------------------------------------|
F|-3-----3-------------3-5-7-----7-------------7-5-3-|
C|-3-3-3-3-3-3-3-3-3-3-3-5-7-7-7-7-7-7-7-7-7-7-7-5-3-|
G|-1-1-1-1-1-1-1-1-1-1-1-3-5-5-5-5-5-5-5-5-5-5-5-3-1-|
C|---------------------------------------------------|
     - -   - - - - - -       - -   - - - - - -
"It hurts! Wounds so sore"
D|-------------------------------------------------|
A|-------------------------------------------------|
F|-----3-------------2-3-5-----5-------------3-5-7-|
C|-3-3-3-3-3-3-3-3-3-2-3-5-5-5-5-5-5-5-5-5-5-3-5-7-|
G|-1-1-1-1-1-1-1-1-1-0-1-3-3-3-3-3-3-3-3-3-3-1-3-5-|
C|-------------------------------------------------|
   - -   - - - - - -       - -   - - - - - -
"Now I'm tooorn, now I'm torn"

Matt
D||----------------------------------------------------||
A||o--------------------------------------------------o||
F||--------5--3-----2--3--5-----5-------------3--5--7--||
C||--7-7-7-5--3-3-3-2--3--5-5-5-5-5-5-5-5-5-5-3--5--7--||
G||o-5-5-5-3--1-1-1-0--1--3-3-3-3-3-3-3-3-3-3-1--3--5-o||
C||----------------------------------------------------||
     - - -      - -         - -   - - - - - -
Padge
D|--------8---------------------------8--------------------------------|
A|-8-10-8---10-8-10-8~~~~--10~-8-10-8---10-8-10-8~~~~-10-8-6-8-6-8-----|
F|-----------------------------------------------------------------5-7-|
C|---------------------------------------------------------------------|
G|---------------------------------------------------------------------|
C|---------------------------------------------------------------------|
"I've been far awaaaaaaay, when I see your face"

-Chorus-
D|-------------------------------------------------------|
A|-------------------------------------------------------|
F|-------------------------------5-----5-------------3-5-|
C|-7----8---7--5--3----3---2--0--5-5-5-5-5-5-5-5-5-5-3-5-|
G|-5--5---5-------1--1---1-------3-3-3-3-3-3-3-3-3-3-1-3-|
C|-------------------------------------------------------|
      -   -          -   -         - -   - - - - - -
"My Hearts Burst Into Fire"
D|---------------------------------------------------|
A|---------------------------------------------------|
F|-------------------------------5-----5-------------|
C|-7----8---7--5--3----3---2--0--5-5-5-5-7-7-7-7-7-7-|
G|-5--5---5-------1--1---1-------3-3-3-3-3-3-3-3-3-3-|
C|---------------------------------------------------|
      -   -          -   -         - -
"Hearts Burst Into Fire"

-Verse-
Matt & Padge
D||--------------------------------------------------|
A||o-6-----------6-5----------5-6----------6-5-----6-|
F||--5-----------5-5----------5-5----------5-5-----5-|
C||--3-----------3-3----------3-3----------3-3-----3-|
G||o-3--3--3-3-3-----3--3-3-3-----3--3-3-3-----3-3---|
C||--3--3--3-3-3-----3--3-3-3-----3--3-3-3-----3-3---|
        -  - - -     -  - - -     -  - - -     - -
-"You're not alone, I know I'm far from home...
-"I'm leavin', do you wait for me again...

Matt
D|-----------------------------------------------------||
A|-10----------10-8---------8-10---------10-8-10-8-10-o||
F|-10----------10-9---------9-10---------10-9-10-9-10--||
C|-----------------------------------------------------||
G|----0--0-0-0-----0--0-0-0-----0--0-0-0--------------o||
C|----0--0-0-0-----0--0-0-0-----0--0-0-0---------------||
      -  - - -     -  - - -     -  - - -
Padge
D|------------------------------------------------------||
A|-6-----------6-5----------5-6----------6--5--6--5--6-o||
F|-5-----------5-5----------5-5----------5--5--5--5--5--||
C|-0-----------0-0----------0-0----------0--0--0--0--0--||
G|-0--0--0-0-0-----0--0-0-0-----0--0-0-0---------------o||
C|-0--0--0-0-0-----0--0-0-0-----0--0-0-0----------------||
      -  - - -     -  - - -     -  - - -
...Do you remember me at all?"
...I'm screamin', no more days without you spent"

-Pre Chorus-
Matt & Padge
D|---------------------------------------------------|
A|---------------------------------------------------|
F|-3-----3-------------3-5-7-----7-------------7-5-3-|
C|-3-3-3-3-3-3-3-3-3-3-3-5-7-7-7-7-7-7-7-7-7-7-7-5-3-|
G|-1-1-1-1-1-1-1-1-1-1-1-3-5-5-5-5-5-5-5-5-5-5-5-3-1-|
C|---------------------------------------------------|
     - -   - - - - - -       - -   - - - - - -
"It hurts! Wounds so sore"
D|-------------------------------------------------|
A|-------------------------------------------------|
F|-----3-------------2-3-5-----5-------------3-5-7-|
C|-3-3-3-3-3-3-3-3-3-2-3-5-5-5-5-5-5-5-5-5-5-3-5-7-|
G|-1-1-1-1-1-1-1-1-1-0-1-3-3-3-3-3-3-3-3-3-3-1-3-5-|
C|-------------------------------------------------|
   - -   - - - - - -       - -   - - - - - -
"Now I'm tooorn, now I'm torn"

Matt
D||----------------------------------------------------||
A||o--------------------------------------------------o||
F||--------5--3-----2--3--5-----5-------------3--5--7--||
C||--7-7-7-5--3-3-3-2--3--5-5-5-5-5-5-5-5-5-5-3--5--7--||
G||o-5-5-5-3--1-1-1-0--1--3-3-3-3-3-3-3-3-3-3-1--3--5-o||
C||----------------------------------------------------||
     - - -      - -         - -   - - - - - -
Padge
D|--------8---------------------------8--------------------------------|
A|-8-10-8---10-8-10-8~~~~--10~-8-10-8---10-8-10-8~~~~-10-8-6-8-6-8-----|
F|-----------------------------------------------------------------5-7-|
C|---------------------------------------------------------------------|
G|---------------------------------------------------------------------|
C|---------------------------------------------------------------------|
Gtr 3
D|---------------------------------------------------------------------------|
A|--------10------------------------10---------------------------------------|
F|-9-10-9----10-9-10---------9-10-9----10-9-10-------------------------------|
C|-------------------10~~-7~-------------------10~~~~--12-10-8-10-8-10-------|
G|---------------------------------------------------------------------10-12-|
C|---------------------------------------------------------------------------|
"I've been far awaaaaaaay, when I see your face"

-Chorus-
D|-------------------------------------------------------|
A|-------------------------------------------------------|
F|-------------------------------5-----5-------------3-5-|
C|-7----8---7--5--3----3---2--0--5-5-5-5-5-5-5-5-5-5-3-5-|
G|-5--5---5-------1--1---1-------3-3-3-3-3-3-3-3-3-3-1-3-|
C|-------------------------------------------------------|
      -   -          -   -         - -   - - - - - -
"My Hearts Burst Into Fire"
D|---------------------------------------------------|
A|---------------------------------------------------|
F|-------------------------------5-----5-------------|
C|-7----8---7--5--3----3---2--0--5-5-5-5-7-7-7-7-7-7-|
G|-5--5---5-------1--1---1-------3-3-3-3-3-3-3-3-3-3-|
C|---------------------------------------------------|
      -   -          -   -         - -
"Hearts Burst Into Fire"
[ Tab from: http://www.guitaretab.com/b/bullet-for-my-valentine/181414.html ]
-Breakdown-
Matt
D||----------------------------------------------------------------||
A||o--------------------------------------------------------------o||
F||--3----5--------------------------------------------------------||
C||--3----5----0~~~~~~~~~~~~~~~~~~~~~~~~~~~~~~~~~~~~~~~~~~~~~~~~~~~||
G||o-1----3----0~~~~~~~~~~~~~~~~~~~~~~~~~~~~~~~~~~~~~~~~~~~~~~~~~~o||
C||------------0~~~~~~~~~~~~~~~~~~~~~~~~~~~~~~~~~~~~~~~~~~~~~~~~~~~||
Padge- Clean
D||---5-----5---3-----3-----3-----5-----5-----5-------5-------5----||
A||o----6---------5-----5-----5-----6-----6-----6---6---6---6---6-o||
F||-3-----3---3-----3-----3-----3-----3-----3-----3-------3--------||
C||----------------------------------------------------------------||
G||o--------------------------------------------------------------o||
C||----------------------------------------------------------------||
"My bed so cold, so lonely...
...No arms, just sheets to hold me"

Matt
D|----------------------------------------------------------------|
A|----------------------------------------------------------------|
F|-3----5----3~~~~~~~~~~~~~~~~~~~~~~~~~~~~~~~~~~~~~~~~~~~~~~~~~~~~|
C|-3----5----3~~~~~~~~~~~~~~~~~~~~~~~~~~~~~~~~~~~~~~~~~~~~~~~~~~~~|
G|-1----3----1~~~~~~~~~~~~~~~~~~~~~~~~~~~~~~~~~~~~~~~~~~~~~~~~~~~~|
C|----------------------------------------------------------------|
Padge
D|---5-----5---3-----3-----3-----8-----8-----8-------5-------5----|
A|-----6---------5-----5-----5-----6-----6-----6---6---6---6---6--|
F|-3-----3---3-----3-----3-----3-----3-----3-----3-------3--------|
C|----------------------------------------------------------------|
G|----------------------------------------------------------------|
C|----------------------------------------------------------------|
"Has this world stopped turning"

Matt
D|----------------------------------------------------------------|
A|----------------------------------------------------------------|
F|-3----5---------------------------------------------3----5------|
C|-3----5----0~~~~~~~~~~~~~~~~~~~~~~~~~~~~~~~~~~~~~~--3----5----3-|
G|-1----3----0~~~~~~~~~~~~~~~~~~~~~~~~~~~~~~~~~~~~~~--1----3----3-|
C|-----------0~~~~~~~~~~~~~~~~~~~~~~~~~~~~~~~~~~~~~~------------3-|
Padge
D||---5-----5---3-----3-----3------5-----5-----5-------5-------5----||
A||o----6---------5-----5-----5------6-----6-----6---6---6---6---6-o||
F||-3-----3---3-----3-----3-----3------3-----3-----3-------3--------||
C||-----------------------------------------------------------------||
G||o---------------------------------------------------------------o||
C||-----------------------------------------------------------------||x3
"Are we forever to be apart...               Forever to be apart"

Matt
D|------------------------------------------------------------|
A|-6--------6---5-----5-----5---6-----6-----6---5---6---5---6-|
F|-5--------5---5-----5-----5---5-----5-----5---5---5---5---5-|
C|-3--------3---3-----3-----3---3-----3-----3---3---3---3---3-|
G|----3-3-3---3---3-3---3-3---3---3-3---3-3---3---3---3---3---|
C|----3-3-3---3---3-3---3-3---3---3-3---3-3---3---3---3---3---|
      - - -   -   - -   - -   -   - -   - -   -   -   -   -
D|--------------------------------------------------|
A|---6--------6---5-----5-----5---6-----6-----6---6-|
F|---5--------5---5-----5-----5---5-----5-----5---5-|
C|---3--------3---3-----3-----3---3-----3-----3---3-|
G|-3----3-3-3---3---3-3---3-3---3---3-3---3-3---3---|
C|-3----3-3-3---3---3-3---3-3---3---3-3---3-3---3---|
   -    - - -   -   - -   - -   -   - -   - -   -

-Pre Chorus-
Matt & Padge
D|---------------------------------------------------|
A|---------------------------------------------------|
F|-3-----3-------------3-5-7-----7-------------7-5-3-|
C|-3-3-3-3-3-3-3-3-3-3-3-5-7-7-7-7-7-7-7-7-7-7-7-5-3-|
G|-1-1-1-1-1-1-1-1-1-1-1-3-5-5-5-5-5-5-5-5-5-5-5-3-1-|
C|---------------------------------------------------|
     - -   - - - - - -       - -   - - - - - -
"It hurts! Wounds so sore"
D|-------------------------------------------------|
A|-------------------------------------------------|
F|-----3-------------2-3-5-----5-------------3-5-7-|
C|-3-3-3-3-3-3-3-3-3-2-3-5-5-5-5-5-5-5-5-5-5-3-5-7-|
G|-1-1-1-1-1-1-1-1-1-0-1-3-3-3-3-3-3-3-3-3-3-1-3-5-|
C|-------------------------------------------------|
   - -   - - - - - -       - -   - - - - - -
"Now I'm tooorn, now I'm torn"

Matt
D||----------------------------------------------------||
A||o--------------------------------------------------o||
F||--------5--3-----2--3--5-----5-------------3--5--7--||
C||--7-7-7-5--3-3-3-2--3--5-5-5-5-5-5-5-5-5-5-3--5--7--||
G||o-5-5-5-3--1-1-1-0--1--3-3-3-3-3-3-3-3-3-3-1--3--5-o||
C||----------------------------------------------------||
     - - -      - -         - -   - - - - - -
Padge
D|--------8---------------------------8--------------------------------|
A|-8-10-8---10-8-10-8~~~~--10~-8-10-8---10-8-10-8~~~~-10-8-6-8-6-8-----|
F|-----------------------------------------------------------------5-7-|
C|---------------------------------------------------------------------|
G|---------------------------------------------------------------------|
C|---------------------------------------------------------------------|
Gtr 3
D|---------------------------------------------------------------------------|
A|--------10------------------------10---------------------------------------|
F|-9-10-9----10-9-10---------9-10-9----10-9-10-------------------------------|
C|-------------------10~~-7~-------------------10~~~~--12-10-8-10-8-10-------|
G|---------------------------------------------------------------------10-12-|
C|---------------------------------------------------------------------------|
"I've been far awaaaaaaay, when I see your face"

-Chorus-
D|-------------------------------------------------------|
A|-------------------------------------------------------|
F|-------------------------------5-----5-------------3-5-|
C|-7----8---7--5--3----3---2--0--5-5-5-5-5-5-5-5-5-5-3-5-|
G|-5--5---5-------1--1---1-------3-3-3-3-3-3-3-3-3-3-1-3-|
C|-------------------------------------------------------|
      -   -          -   -         - -   - - - - - -
"My Hearts Burst Into Fire"
D|---------------------------------------------------|
A|---------------------------------------------------|
F|-------------------------------5-----5-------------|
C|-7----8---7--5--3----3---2--0--5-5-5-5-7-7-7-7-7-7-|
G|-5--5---5-------1--1---1-------3-3-3-3-3-3-3-3-3-3-|
C|---------------------------------------------------|
      -   -          -   -         - -
"Hearts Burst Into Fire"

Matt
D|----------------------------------------------------------------|
A|-6--------6---5-----5-----5---6-----6-----6---5---5---6---5---6-|
F|-5--------5---5-----5-----5---5-----5-----5---5---5---5---5---5-|
C|-3--------3---3-----3-----3---3-----3-----3---3---3---3---3---3-|
G|----3-3-3---3---3-3---3-3---3---3-3---3-3---3---3---3---3---3---|
C|----3-3-3---3---3-3---3-3---3---3-3---3-3---3---3---3---3---3---|
      - - -   -   - -   - -   -   - -   - -   -   -   -   -   -
D|-----------------------------------------------|
A|-------6---5-----5-----5---6-----6-----6---6-6-|
F|-------5---5-----5-----5---5-----5-----5---5-5-|
C|-------3---3-----3-----3---3-----3-----3---3-3-|
G|-3-3-3---3---3-3---3-3---3---3-3---3-3---3-----|
C|-3-3-3---3---3-3---3-3---3---3-3---3-3---3-----|
   - - -   -   - -   - -   -   - -   - -   -
Padge
D|-/13-12-------------------/13-12------------------|
A|--------13-----------------------13---------------|
F|-----------12-10-9-10~~~------------12-10-9-10~~~-|
C|--------------------------------------------------|
G|--------------------------------------------------|
C|--------------------------------------------------|
"I'm comin' home, I've been gone for far too long"

D|-/13-12-------------------/13-12--------------------|
A|--------13-----------------------13-----------------|
F|-----------12-10-9-10~~~------------12-10-9-12br-10-|
C|----------------------------------------------------|
G|----------------------------------------------------|
C|----------------------------------------------------|
Gtr 3
D|-/17-15------------------/17-15---------------------|
A|--------17----------------------17------------------|
F|-----------15-14-12-15~~-----------15-14-12-15br-14-|
C|----------------------------------------------------|
G|----------------------------------------------------|
C|----------------------------------------------------|
"Do you remember me at all"

Matt & Padge
D|-------------------------------------------------|
A|-6-----------6-5----------5-6----------6-5-----6-|
F|-5-----------5-5----------5-5----------5-5-----5-|
C|-3-----------3-3----------3-3----------3-3-----3-|
G|-3--3--3-3-3-----3--3-3-3-----3--3-3-3-----3-3---|
C|-3--3--3-3-3-----3--3-3-3-----3--3-3-3-----3-3---|
      -  - - -     -  - - -     -  - - -     - -

Matt
D|----------------------------------------------------|
A|-10----------10-8---------8-10---------10-8-10-8-10-|
F|-10----------10-9---------9-10---------10-9-10-9-10-|
C|----------------------------------------------------|
G|----0--0-0-0-----0--0-0-0-----0--0-0-0--------------|
C|----0--0-0-0-----0--0-0-0-----0--0-0-0--------------|
      -  - - -     -  - - -     -  - - -
Padge
D|-----------------------------------------------------|
A|-6-----------6-5----------5-6----------6--5--6--5--6-|
F|-5-----------5-5----------5-5----------5--5--5--5--5-|
C|-0-----------0-0----------0-0----------0--0--0--0--0-|
G|-0--0--0-0-0-----0--0-0-0-----0--0-0-0---------------|
C|-0--0--0-0-0-----0--0-0-0-----0--0-0-0---------------|
      -  - - -     -  - - -     -  - - -

Matt & Padge
D|-------------------------------------------------|
A|-6-----------6-5----------5-6----------6-5-----6-|
F|-5-----------5-5----------5-5----------5-5-----5-|
C|-3-----------3-3----------3-3----------3-3-----3-|
G|-3--3--3-3-3-----3--3-3-3-----3--3-3-3-----3-3---|
C|-3--3--3-3-3-----3--3-3-3-----3--3-3-3-----3-3---|
      -  - - -     -  - - -     -  - - -     - -
"Do you remember me at all?"

Matt
D|-------------------------------------------------|
A|-10----------10-8---------8-10-------------------|
F|-10----------10-9---------9-10--------------3--5-|
C|--------------------------------------------3--5-|
G|----0--0-0-0-----0--0-0-0-----0--0-0-0------1--3-|
C|----0--0-0-0-----0--0-0-0-----0--0-0-0--12\------|
      -  - - -     -  - - -     -  - - -
Padge
D|-------------------------------------------------|
A|-6-----------6-5----------5-6--------------------|
F|-5-----------5-5----------5-5---------------3--5-|
C|-0-----------0-0----------0-0---------------3--5-|
G|-0--0--0-0-0-----0--0-0-0-----0--0-0-0------1--3-|
C|-0--0--0-0-0-----0--0-0-0-----0--0-0-0--12\------|
      -  - - -     -  - - -     -  - - -
"I'm leavin', I'm screamin', I'm dreamin'
WHEN HEARTS BURST INTO

FIIIIIIIIIIIIIIIIIIIIIIIIIIRE!!!
-Outro-
Matt
D|--------------------------------------------------|
A|--------------------------------------------------|
F|--------------------------------------------------|
C|-0~~~~~~~~~~~~~~~~~~~~~~~~~~~~~~~~~~~~~~~~~~~~~~~~|
G|-0~~~~~~~~~~~~~~~~~~~~~~~~~~~~~~~~~~~~~~~~~~~~~~~~|
C|-0~~~~~~~~~~~~~~~~~~~~~~~~~~~~~~~~~~~~~~~~~~~~~~~~|
Padge
D|-/13-12-------------------/13-12------------------|
A|--------13-----------------------13---------------|
F|-----------12-10-9-10~~~------------12-10-9-10~~~-|
C|--------------------------------------------------|
G|--------------------------------------------------|
C|--------------------------------------------------|
Gtr 3
D|-/17-15--------/17-15-------------------|
A|--------17------------17----------------|
F|-----------15------------15-14-12-15~~~-|
C|----------------------------------------|
G|----------------------------------------|
C|----------------------------------------|

Padge
D|-/13-12-------------------/13-12------------------|
A|--------13-----------------------13---------------|
F|-----------12-10-9-10~~~------------12-10-9-10~~~-|
C|--------------------------------------------------|
G|--------------------------------------------------|
C|--------------------------------------------------|
Gtr 3
D|-/17-15-------------------/17-15-------/17-15----|
A|--------17-----------------------17-----------17-|
F|-----------15-14-12-15~~~-----------15-----------|
C|-------------------------------------------------|
G|-------------------------------------------------|
C|-------------------------------------------------|

Padge
D|-/13-12-------------------/13-12------------------|
A|--------13-----------------------13---------------|
F|-----------12-10-9-10~~~------------12-10-9-10~~~-|
C|--------------------------------------------------|
G|--------------------------------------------------|
C|--------------------------------------------------|
Gtr 3
D|-/17-15------------------/17-15-------------------|
A|--------17----------------------17----------------|
F|-----------15-14-12-15~~-----------15-14-12-15~~~-|
C|--------------------------------------------------|
G|--------------------------------------------------|
C|--------------------------------------------------|

Padge
D|-/13-12-------------------/13-12------------------|
A|--------13-----------------------13---------------|
F|-----------12-10-9-10~~~------------12-10-9-10~~~-|
C|--------------------------------------------------|
G|--------------------------------------------------|
C|--------------------------------------------------|
Gtr 3
D|-/17-15------------------/17-15-------------------|
A|--------17----------------------17----------------|
F|-----------15-14-12-15~~-----------15-14-12-15~~~-|
C|--------------------------------------------------|
G|--------------------------------------------------|
C|--------------------------------------------------|

Padge
D|-/13-12-------------------/13-12---------------------------------------------|
A|--------13-----------------------13------------------------------------------|
F|-----------12-10-9-10~~~------------12-10-9-10~~~~~~~~~~~~~~~~~~~~~~~~~~~~~~-|
C|-----------------------------------------------------------------------------|
G|-----------------------------------------------------------------------------|
C|-----------------------------------------------------------------------------|
Gtr 3
D|-/17-15------------------/17-15----------------------------------------------|
A|--------17----------------------17-------------------------------------------|
F|-----------15-14-12-15~~-----------15-14-12-15~~~~~~~~~~~~~~~~~~~~~~~~~~~~~~-|
C|-----------------------------------------------------------------------------|
G|-----------------------------------------------------------------------------|
C|-----------------------------------------------------------------------------|
Related for Hearts Burst Into Fire tab
Hearts Burst Into Fire chords by Bullet For My Valentine