Song name
# A B C D E F G H I J K L M N O P Q R S T U V W X Y Z

Bullet For My Valentine - Hand Of Blood tab

Highlighted       Show chord diagrams
Bullet For My Valentine
HAnd Of Blood
The Poison
2005
Submitted by: paramore_fans@yahoo.com

key: Eb

Tuning: Standard EADGBe

Chords used:
Cm - x35543
G# - 466544
Eb - x68886
Bb - x13331
Fm - 133111
Gm - 355333
G -  320033

Intro: Cm(Main Riff)---
Cm--G x2, G#--Bb--


Main Riff:

Matt:
E|------------------|-----------------|
B|------------------|-----------------|
G|---0-1-----0------|-----------------|
D|---------3-----1--|-3---0-1---0-3-0-|
A|-3-----3-----3----|---3-----3-------|
E|------------------|-----------------|

e|-----------------|------------------------|
B|-----------------|------------------------|
G|---0-1-----0-----|------------------------|
D|---------3-----1-|-3---010h1p0h1p0h1p0h-1-|
A|-3-----3-----3---|---3--------------------|
E|-----------------|------------------------|

E|------------------|-----------------|
B|------------------|-----------------|
G|---0-1-----0------|-----------------|
D|---------3-----1--|-3---0-1---0-3-0-|
A|-3-----3-----3----|---3-----3-------|
E|------------------|-----------------|

E|------------------|---------|
B|------------------|---------|
G|---0-1-----0------|---------|
D|---------3-----1--|-3---0-1-|
A|-3-----3-----3----|---3-----|
E|------------------|---------|


Padge:
E|-------------------|-----------------|
B|---3-4---1-3-------|-1-------------1-|
G|---------------3---|-----2-3---2-2---|
D|-------------------|-----------------|
A|-3-----3-----3-----|---3-----3-------|
E|-------------------|-----------------|

e|-----------------|-------------------------|
B|---3-4---1-3-----|-1-----------------------|
G|---------------3-|-----2-3-2h3p2h3p2h3p2h3-|
D|-----------------|-------------------------|
A|-3-----3-----3---|---3---------------------|
E|-----------------|-------------------------|

e|---------------1-|-3---3-4---1-----|
B|---3-4---1-3-----|-------------4-4-|
G|-----------------|-----------------|
D|-----------------|-----------------|
A|-3-----3-----3---|---3-----3-------|
E|-----------------|-----------------|

e|-----------------|-----------|
B|---3-4---1-3-----|-1---------|
G|---------------3-|-----2-3---|
D|-----------------|-----------|
A|-3-----3-----3---|---3-------|
E|-----------------|-----------|


OH!!!!


Verse 1:
Cm(hold)
  There goes my
           Eb(hold)
valentine again
Soaked in red
             G(hold)
for what she said
             Cm
And now shes gone!
Oh my God have
           Cm
I done it again?
          Eb
There's a pulse
         Gm
and it's deafening
Cm
  I cant help what
             Cm
I hear in my head
         Eb
It's the switch that
  Gm
I flip (they said)
Cm
Hand of Blood!
I don't wanna feel
Cm   Eb       Gm
  my heart is breaking
Cm
Hand of Blood!
I don't wanna
   Cm    Eb
see   my life
   Gm
is burning


(Repeat Intro Main Riff)


Chorus:
Cm Eb Gm          Eb    Cm
        I saw you look away
   G#
Is what you've seen too
                Bb
much to take or are
you blind and
seeing nothing?
   Cm  Eb  Gm
(I saw you run)
          Eb   Cm
I saw you run away
   G#
Is what I've
done too much
           Bb
to take or are you
scared of being nothing?


Verse 2:
Cm
  There's a stain
on my hand and its
Cm        Eb
red Oh my God am
  G      Cm
I losing it?
I can't help what
                  Cm
I've done or I've said
         Eb
It's the button
  G#
i push (they said)
Cm
Hand of Blood!
I don't wanna feel
Cm   Eb       Gm
  my heart is breaking
Cm
Hand of Blood!
I don't wanna
   Cm    Eb
see   my life
   Gm
is burning


(Repeat Intro Main Riff)
(Repeat chorus)


Guitar Solo: Cm--Cm-Eb-Gm x2
G#--Cm-- x6


Bridge:
G#      Cm G# Cm
NOOOOOO!
Cm     (pause)
OOOOAH!


(Repeat chorus)


Outro: Cm(hold)
Tap to rate this tab
# A B C D E F G H I J K L M N O P Q R S T U V W X Y Z