Song name
# A B C D E F G H I J K L M N O P Q R S T U V W X Y Z

Bullet For My Valentine - Deliver Us From Evil tab

Help us improve GuitareTab! Take a short survey!
Deliver Us From Evil
Bullet For My Valentine
Scream Aim Fire
Drop C- CGCFAD

-Intro-
Padge- Light Dist.
D|----------------------------------------------------------------------------------|
A|----------------------------------------------------------------------------------|
F|-9------9------9------9------9----9----10-----10-----10-----10-----10---10---9----|
C|-10-----10-----10-----10-----10---10---10-----10-----10-----10-----10---10---10---|
G|----0-0----0-0----0-0----0-0----0----0----0-0----0-0----0-0----0-0----0----0----0-|
C|----------------------------------------------------------------------------------|
      - -    - -    - -    - -    -    -    - -    - -    - -    - -    -    -    -
D|------------------------------------------------------------------|
A|------------------------------------------------------------------|
F|-7-----7-----7-----7-----5---7---9------9------9-----10--9---7--5-|
C|-9-----9-----9-----9-----7---9---10-----10-----10----10--10--9--7-|
G|---0-0---0-0---0-0---0-0---0---0----0-0----0-0----0---------------|
C|------------------------------------------------------------------|
     - -   - -   - -   - -   -   -    - -    - -    -
Padge
D|----------------------------------------------------------------------------------|
A|----------------------------------------------------------------------------------|
F|-9------9------9------9------9----9----10-----10-----10-----10-----10---10---9----|
C|-10-----10-----10-----10-----10---10---10-----10-----10-----10-----10---10---10---|
G|----0-0----0-0----0-0----0-0----0----0----0-0----0-0----0-0----0-0----0----0----0-|
C|----------------------------------------------------------------------------------|
      - -    - -    - -    - -    -    -    - -    - -    - -    - -    -    -    -
Matt- Light Dist.
D|-----------------------------------------------------------------|
A|-----------------------------------------------------------------|
F|-5-----5-----5-----5-----5---5---5-----5-----5-----5-----5---5---|
C|-5-----5-----5-----5-----5---5---5-----5-----5-----5-----5---5---|
G|---0-0---0-0---0-0---0-0---0---0---------------------------------|
C|-----------------------------------3-3---3-3---3-3---3-3---3---3-|
     - -   - -   - -   - -   -   -   - -   - -   - -   - -   -   -
Padge
D|---------------------------------------------------------|
A|---------------------------------------------------------|
F|-7-----7-----7-----7-----5---7---9------9------9----7~~~-|
C|-9-----9-----9-----9-----7---9---10-----10-----10---9~~~-|
G|---0-0---0-0---0-0---0-0---0---0----0-0----0-0----0------|
C|---------------------------------------------------------|
Matt - -   - -   - -   - -   -   -    - -    - -    -
D|------------------------------------------------------|
A|------------------------------------------------------|
F|-4-----4-----4-----4-----4---4---4-----4----4----4~~~-|
C|-5-----5-----5-----5-----5---5---5-----5----5----5~~~-|
G|------------------------------------------------------|
C|---5-5---5-5---5-5---5-5---5---5---2-2---2-2---2------|
     - -   - -   - -   - -   -   -   - -   - -   -

Matt & Padge- Dist.
D|-------------------------------------------------------------------|
A|-------------------------------------------------------------------|
F|-------------------------------------------------------------------|
C|-3-3-3-3-3-3-3-3-3-3-3-3-3-3-3-3-5-5-5-5-5-5-5-5-5-5-5-5-5-5-5-5-5-|
G|-3-3-3-3-3-3-3-3-3-3-3-3-3-3-3-3-5-5-5-5-5-5-5-5-5-5-5-5-5-5-5-5-5-|
C|-3-3-3-3-3-3-3-3-3-3-3-3-3-3-3-3-5-5-5-5-5-5-5-5-5-5-5-5-5-5-5-5-5-|

Matt
D|-------------------------------------------------------------------|
A|-------------------------------------------------------------------|
F|-9-9-9-9-9-9-9-9-9-9-9-9-9-9-9-9-7-7-7-7-7-7-7-7/9-9-9-9-9-9-9-9-9-|
C|-x-x-x-x-x-x-x-x-x-x-x-x-x-x-x-x-x-x-x-x-x-x-x-x-x-x-x-x-x-x-x-x-x-|
G|-7-7-7-7-7-7-7-7-7-7-7-7-7-7-7-7-5-5-5-5-5-5-5-5/7-7-7-7-7-7-7-7-7-|
C|-------------------------------------------------------------------|
Padge
D|-------------------------------------------------------------------|
A|-------------------------------------------------------------------|
F|-5-5-5-5-5-5-5-5-5-5-5-5-5-5-5-5-4-4-4-4-4-4-4-4/5-5-5-5-5-5-5-5-5-|
C|-x-x-x-x-x-x-x-x-x-x-x-x-x-x-x-x-x-x-x-x-x-x-x-x-x-x-x-x-x-x-x-x-x-|
G|-3-3-3-3-3-3-3-3-3-3-3-3-3-3-3-3-2-2-2-2-2-2-2-2/3-3-3-3-3-3-3-3-3-|
C|-------------------------------------------------------------------|

Matt & Padge
D|-------------------------------------------------------------------|
A|-------------------------------------------------------------------|
F|-------------------------------------------------------------------|
C|-3-3-3-3-3-3-3-3-3-3-3-3-3-3-3-3-5-5-5-5-5-5-5-5-5-5-5-5-5-5-5-5-5-|
G|-3-3-3-3-3-3-3-3-3-3-3-3-3-3-3-3-5-5-5-5-5-5-5-5-5-5-5-5-5-5-5-5-5-|
C|-3-3-3-3-3-3-3-3-3-3-3-3-3-3-3-3-5-5-5-5-5-5-5-5-5-5-5-5-5-5-5-5-5-|

Matt
D|----------------------------------------------------------------------------------|
A|----------------------------------------------------------------------------------|
F|-2~~~~~~~~~~~~~~~~~~~~~~~~~~~~~~~~~~~~~~~~~~~~~~~~~~~~~~~~~~~~~~~~~~~~~~~~~~~~~~~-|
C|-2~~~~~~~~~~~~~~~~~~~~~~~~~~~~~~~~~~~~~~~~~~~~~~~~~~~~~~~~~~~~~~~~~~~~~~~~~~~~~~~-|
G|-0~~~~~~~~~~~~~~~~~~~~~~~~~~~~~~~~~~~~~~~~~~~~~~~~~~~~~~~~~~~~~~~~~~~~~~~~~~~~~~~-|
C|----------------------------------------------------------------------------------|
Padge- Light Dist.
D|----------------------------------------------------------------------------------|
A|----------------------------------------------------------------------------------|
F|-9------9------9------9------9----9----10-----10-----10-----10-----10---10---9----|
C|-10-----10-----10-----10-----10---10---10-----10-----10-----10-----10---10---10---|
G|----0-0----0-0----0-0----0-0----0----0----0-0----0-0----0-0----0-0----0----0----0-|
C|----------------------------------------------------------------------------------|
      - -    - -    - -    - -    -    -    - -    - -    - -    - -    -    -    -
D|------------------------------------------------------------------|
A|------------------------------------------------------------------|
F|-7-----7-----7-----7-----5---7---9------9------9-----10--9---7--5-|
C|-9-----9-----9-----9-----7---9---10-----10-----10----10--10--9--7-|
G|---0-0---0-0---0-0---0-0---0---0----0-0----0-0----0---------------|
C|------------------------------------------------------------------|
     - -   - -   - -   - -   -   -    - -    - -    -

-Verse-
Padge- Light Dist.
D||----------------------------------------------------------------------------------|
A||o---------------------------------------------------------------------------------|
F||-9------9------9------9------9----9----10-----10-----10-----10-----10---10---9----|
C||-10-----10-----10-----10-----10---10---10-----10-----10-----10-----10---10---10---|
G||o---0-0----0-0----0-0----0-0----0----0----0-0----0-0----0-0----0-0----0----0----0-|
C||----------------------------------------------------------------------------------|
       - -    - -    - -    - -    -    -    - -    - -    - -    - -    -    -    -
-"Whats happening to me? I'm dying from the inside...
-"Pressure adds the pain, Deliver Us From Evil...
D|------------------------------------------------------------------||
A|-----------------------------------------------------------------o||
F|-7-----7-----7-----7-----5---7---9------9------9-----10--9---7--5-||
C|-9-----9-----9-----9-----7---9---10-----10-----10----10--10--9--7-||
G|---0-0---0-0---0-0---0-0---0---0----0-0----0-0----0--------------o||
C|------------------------------------------------------------------||
     - -   - -   - -   - -   -   -    - -    - -    -
...Body hurts too much to feel"
...Straying out of sanity"

Padge
D||----------------------------------------------------------------------------------|
A||o---------------------------------------------------------------------------------|
F||-9------9------9------9------9----9----10-----10-----10-----10-----10---10---9----|
C||-10-----10-----10-----10-----10---10---10-----10-----10-----10-----10---10---10---|
G||o---0-0----0-0----0-0----0-0----0----0----0-0----0-0----0-0----0-0----0----0----0-|
C||----------------------------------------------------------------------------------|
       - -    - -    - -    - -    -    -    - -    - -    - -    - -    -    -    -
Matt- Light Dist.
D||----------------------------------------------------------------------------------|
A||o---------------------------------------------------------------------------------|
F||--------------2---------2~~~~~~~~~~~~~~-------------------------------------------|
C||--------------2---------2~~~~~~~~~~~~~~-------------3---------3~~~~~~~~~~~~~~~~~~-|
G||o-0-0-0-0-0-0-0-0-0-0-0-0~~~~~~~~~~~~~~-------------3---------3~~~~~~~~~~~~~~~~~~-|
C||----------------------------------------3-3-3-3-3-3-3-3-3-3-3-3~~~~~~~~~~~~~~~~~~-|
     - - - - - -   - - - -                 - - - - - -   - - - -
-"Why can't you let me be? Its nothing else important...
-"'Cause if I carry on, Deliver Us From Evil...        
                                                       1st ending     2nd ending
D|-----------------------------------------------------|--------------|-----------|
A|----------------------------------------------------o|--------------|-----------|
F|-7-----7-----7-----7-----5---7---9------9------9-----|-10--9---7--5-|-----------|
C|-9-----9-----9-----9-----7---9---10-----10-----10----|-10--10--9--7-|-3--2--0---|
G|---0-0---0-0---0-0---0-0---0---0----0-0----0-0----0-o|--------------|-----------|
C|-----------------------------------------------------|--------------|---------2-|
     - -   - -   - -   - -   -   -    - -    - -    -
D|-------------------------------------------------------------------||-----------|
A|------------------------------------------------------------------o||-----------|
F|-------------------------------------------------------------------||-----------|
C|-------------5---------5~~~~~~~~~-------------2---------2~~~~~~~~--||-----------|
G|-------------5---------5~~~~~~~~~-------------2---------2~~~~~~~~-o||-5--3--2---|
C|-5-5-5-5-5-5-5-5-5-5-5-5~~~~~~~~~-2-2-2-2-2-2-2-2-2-2-2-2~~~~~~~~--||---------2-|
   - - - - - -   - - - -            - - - - - -   - - - -
...Just reminds me more to you"
...Screaming for you vanity"

-Pre Chorus-
Matt & Padge- Dist.
D|---------------------------------------------------------|
A|---------------------------------------------------------|
F|---------------------------------------------------------|
C|-3~~~~------5~~~~------7~~~~---9---10---3~~~~------5~~~~-|
G|-3~~~~------5~~~~------7~~~~---9---10---3~~~~------5~~~~-|
C|-3~~~~------5~~~~------7~~~~---9---10---3~~~~------5~~~~-|
"Will darkness turn to light? (WILL DARKNESS TURN TO LIGHT!)

Matt
D|----------------------------------------------|
A|----------------------------------------------|
F|----------------------------------------------|
C|-------9-----10-------9-----10-------9-----10-|
G|-0-0-0---0-0----0-0-0---0-0----0-0-0---0-0----|
C|----------------------------------------------|
   - - -   - -    - - -   - -    - - -   - -
Padge
D|-------------------------------------------------|
A|-------------------------------------------------|
F|-------------------------------------------------|
C|-------12-----14-------12-----14-------12-----14-|
G|-0-0-0----0-0----0-0-0----0-0----0-0-0----0-0----|
C|-------------------------------------------------|
   - - -    -      - - -    - -    - - -    - -
"Can someone wake me from this nightmare"

Matt
D|-------------------------------------------------------------|
A|-------------------------------------------------------------|
F|-------5-4----------5-4--------------------------------------|
C|-3---------5--5---------5--7--------------------9--9--10--10-|
G|-3--3---------5--5---------7--------------------9--9--10--10-|
C|-3--3---------5--5---------7-7-7-7--7-7-7--7-7--9--9--10--10-|
      -            -           - - -  - - -  - -
Padge
D|-------------------------------------------------------------|
A|--------------------5----------------------------------------|
F|-------5-4------------7-5------------------------------------|
C|-3---------5--5------------7--------------------9--9--10--10-|
G|-3--3---------5--5---------7--------------------9--9--10--10-|
C|-3--3---------5--5---------7-7-7-7--7-7-7--7-7--9--9--10--10-|
      -            -           - - -  - - -  - -
"HERE!! WE!! GO!!"

Matt
D|--------------------------------------------------------------|
A|--------------------------------------------------------------|
F|-------5-4----------5-4---------------------------------------|
C|-3---------5--5---------5--7-7-7-7-7-7-7-10-10-10-10-10-10-10-|
G|-3--3---------5--5---------7-7-7-7-7-7-7-10-10-10-10-10-10-10-|
C|-3--3---------5--5---------7-7-7-7-7-7-7-10-10-10-10-10-10-10-|
      -            -
Padge
D|--------------------------------------------------------------|
A|--------------------5-----------------------------------------|
F|-------5-4------------7-5-------------------------------------|
C|-3---------5--5------------7-7-7-7-7-7-7-10-10-10-10-10-10-10-|
G|-3--3---------5--5---------7-7-7-7-7-7-7-10-10-10-10-10-10-10-|
C|-3--3---------5--5---------7-7-7-7-7-7-7-10-10-10-10-10-10-10-|
      -            -
"HERE!! WE!! GOOOOOOOOO!!"

-Chorus-
Matt & Padge
D|-------------------------------------------------------------------|
A|-------------------------------------------------------------------|
F|-------------------------------------------------------------------|
C|-3-3-3-3-3-3-3-3-3-3-3-3-3-3-3-3-5-5-5-5-5-5-5-5-5-5-5-5-5-5-5-5-5-|
G|-3-3-3-3-3-3-3-3-3-3-3-3-3-3-3-3-5-5-5-5-5-5-5-5-5-5-5-5-5-5-5-5-5-|
C|-3-3-3-3-3-3-3-3-3-3-3-3-3-3-3-3-5-5-5-5-5-5-5-5-5-5-5-5-5-5-5-5-5-|
"The tank is empty, let it dry, I'm sufferin'"

Matt
D|-------------------------------------------------------------------|
A|-------------------------------------------------------------------|
F|-9-9-9-9-9-9-9-9-9-9-9-9-9-9-9-9-7-7-7-7-7-7-7-7/9-9-9-9-9-9-9-9-9-|
C|-x-x-x-x-x-x-x-x-x-x-x-x-x-x-x-x-x-x-x-x-x-x-x-x-x-x-x-x-x-x-x-x-x-|
G|-7-7-7-7-7-7-7-7-7-7-7-7-7-7-7-7-5-5-5-5-5-5-5-5/7-7-7-7-7-7-7-7-7-|
C|-------------------------------------------------------------------|
Padge
D|-------------------------------------------------------------------|
A|-------------------------------------------------------------------|
F|-5-5-5-5-5-5-5-5-5-5-5-5-5-5-5-5-4-4-4-4-4-4-4-4/5-5-5-5-5-5-5-5-5-|
C|-x-x-x-x-x-x-x-x-x-x-x-x-x-x-x-x-x-x-x-x-x-x-x-x-x-x-x-x-x-x-x-x-x-|
G|-3-3-3-3-3-3-3-3-3-3-3-3-3-3-3-3-2-2-2-2-2-2-2-2/3-3-3-3-3-3-3-3-3-|
C|-------------------------------------------------------------------|
"A passion ending so the world ceases turning"

Matt & Padge
D|-------------------------------------------------------------------|
A|-------------------------------------------------------------------|
F|-------------------------------------------------------------------|
C|-3-3-3-3-3-3-3-3-3-3-3-3-3-3-3-3-5-5-5-5-5-5-5-5-5-5-5-5-5-5-5-5-5-|
G|-3-3-3-3-3-3-3-3-3-3-3-3-3-3-3-3-5-5-5-5-5-5-5-5-5-5-5-5-5-5-5-5-5-|
C|-3-3-3-3-3-3-3-3-3-3-3-3-3-3-3-3-5-5-5-5-5-5-5-5-5-5-5-5-5-5-5-5-5-|
"The tank is empty, let it dry"

-Verse-
Padge
D||----------------------------------------------------------------------------------|
A||o---------------------------------------------------------------------------------|
F||-9------9------9------9------9----9----10-----10-----10-----10-----10---10---9----|
C||-10-----10-----10-----10-----10---10---10-----10-----10-----10-----10---10---10---|
G||o---0-0----0-0----0-0----0-0----0----0----0-0----0-0----0-0----0-0----0----0----0-|
C||----------------------------------------------------------------------------------|
       - -    - -    - -    - -    -    -    - -    - -    - -    - -    -    -    -
Matt- Light Dist.
D||----------------------------------------------------------------------------------|
A||o---------------------------------------------------------------------------------|
F||--------------2---------2~~~~~~~~~~~~~~-------------------------------------------|
C||--------------2---------2~~~~~~~~~~~~~~-------------3---------3~~~~~~~~~~~~~~~~~~-|
G||o-0-0-0-0-0-0-0-0-0-0-0-0~~~~~~~~~~~~~~-------------3---------3~~~~~~~~~~~~~~~~~~-|
C||----------------------------------------3-3-3-3-3-3-3-3-3-3-3-3~~~~~~~~~~~~~~~~~~-|
     - - - - - -   - - - -                 - - - - - -   - - - -
-"Why can't you see? I'm nothing more than human...
-"But here we go again, Deliver Us From Evil...        
                                                       1st ending     2nd ending
D|-----------------------------------------------------|--------------|-----------|
A|----------------------------------------------------o|--------------|-----------|
F|-7-----7-----7-----7-----5---7---9------9------9-----|-10--9---7--5-|-----------|
C|-9-----9-----9-----9-----7---9---10-----10-----10----|-10--10--9--7-|-----------|
G|---0-0---0-0---0-0---0-0---0---0----0-0----0-0----0-o|--------------|-5--3--2---|
C|-----------------------------------------------------|--------------|---------2-|
     - -   - -   - -   - -   -   -    - -    - -    -
D|-------------------------------------------------------------------||-----------|
A|------------------------------------------------------------------o||-----------|
F|-------------------------------------------------------------------||-----------|
C|-------------5---------5~~~~~~~~~-------------2---------2~~~~~~~~--||-3--2--0---|
G|-------------5---------5~~~~~~~~~-------------2---------2~~~~~~~~-o||-----------|
C|-5-5-5-5-5-5-5-5-5-5-5-5~~~~~~~~~-2-2-2-2-2-2-2-2-2-2-2-2~~~~~~~~--||---------2-|
   - - - - - -   - - - -            - - - - - -   - - - -
...Making plans for enemies"
...Crawling back to insanity"

-Pre Chorus-
Matt & Padge- Dist.
D|---------------------------------------------------------|
A|---------------------------------------------------------|
F|---------------------------------------------------------|
C|-3~~~~------5~~~~------7~~~~---9---10---3~~~~------5~~~~-|
G|-3~~~~------5~~~~------7~~~~---9---10---3~~~~------5~~~~-|
C|-3~~~~------5~~~~------7~~~~---9---10---3~~~~------5~~~~-|
"Will darkness turn to light? (WILL DARKNESS TURN TO LIGHT!)

Matt
D|----------------------------------------------|
A|----------------------------------------------|
F|----------------------------------------------|
C|-------9-----10-------9-----10-------9-----10-|
G|-0-0-0---0-0----0-0-0---0-0----0-0-0---0-0----|
C|----------------------------------------------|
   - - -   - -    - - -   - -    - - -   - -
Padge
D|-------------------------------------------------|
A|-------------------------------------------------|
F|-------------------------------------------------|
C|-------12-----14-------12-----14-------12-----14-|
G|-0-0-0----0-0----0-0-0----0-0----0-0-0----0-0----|
C|-------------------------------------------------|
   - - -    -      - - -    - -    - - -    - -
"Can someone wake me from this nightmare"

Matt
D|-------------------------------------------------------------|
A|-------------------------------------------------------------|
F|-------5-4----------5-4--------------------------------------|
C|-3---------5--5---------5--7--------------------9--9--10--10-|
G|-3--3---------5--5---------7--------------------9--9--10--10-|
C|-3--3---------5--5---------7-7-7-7--7-7-7--7-7--9--9--10--10-|
      -            -           - - -  - - -  - -
Padge
D|-------------------------------------------------------------|
A|--------------------5----------------------------------------|
F|-------5-4------------7-5------------------------------------|
C|-3---------5--5------------7--------------------9--9--10--10-|
G|-3--3---------5--5---------7--------------------9--9--10--10-|
C|-3--3---------5--5---------7-7-7-7--7-7-7--7-7--9--9--10--10-|
      -            -           - - -  - - -  - -
"HERE!! WE!! GO!!"

Matt
D|--------------------------------------------------------------|
A|--------------------------------------------------------------|
F|-------5-4----------5-4---------------------------------------|
C|-3---------5--5---------5--7-7-7-7-7-7-7-10-10-10-10-10-10-10-|
G|-3--3---------5--5---------7-7-7-7-7-7-7-10-10-10-10-10-10-10-|
C|-3--3---------5--5---------7-7-7-7-7-7-7-10-10-10-10-10-10-10-|
      -            -
Padge
D|--------------------------------------------------------------|
A|--------------------5-----------------------------------------|
F|-------5-4------------7-5-------------------------------------|
C|-3---------5--5------------7-7-7-7-7-7-7-10-10-10-10-10-10-10-|
G|-3--3---------5--5---------7-7-7-7-7-7-7-10-10-10-10-10-10-10-|
C|-3--3---------5--5---------7-7-7-7-7-7-7-10-10-10-10-10-10-10-|
      -            -
"HERE!! WE!! GOOOOOOOOO!!"

-Chorus-
Matt & Padge
D||--------------------------------------------------------------------|
A||o-------------------------------------------------------------------|
F||--------------------------------------------------------------------|
C||--3-3-3-3-3-3-3-3-3-3-3-3-3-3-3-3-5-5-5-5-5-5-5-5-5-5-5-5-5-5-5-5-5-|
G||o-3-3-3-3-3-3-3-3-3-3-3-3-3-3-3-3-5-5-5-5-5-5-5-5-5-5-5-5-5-5-5-5-5-|
C||--3-3-3-3-3-3-3-3-3-3-3-3-3-3-3-3-5-5-5-5-5-5-5-5-5-5-5-5-5-5-5-5-5-|
"The tank is empty, let it dry, I'm sufferin'...

Matt
D|--------------------------------------------------------------------||
A|-------------------------------------------------------------------o||
F|-9-9-9-9-9-9-9-9-9-9-9-9-9-9-9-9-7-7-7-7-7-7-7-7/9-9-9-9-9-9-9-9-9--||
C|-x-x-x-x-x-x-x-x-x-x-x-x-x-x-x-x-x-x-x-x-x-x-x-x-x-x-x-x-x-x-x-x-x--||
G|-7-7-7-7-7-7-7-7-7-7-7-7-7-7-7-7-5-5-5-5-5-5-5-5/7-7-7-7-7-7-7-7-7-o||
C|--------------------------------------------------------------------||
Padge
D|--------------------------------------------------------------------||
A|-------------------------------------------------------------------o||
F|-5-5-5-5-5-5-5-5-5-5-5-5-5-5-5-5-4-4-4-4-4-4-4-4/5-5-5-5-5-5-5-5-5--||
C|-x-x-x-x-x-x-x-x-x-x-x-x-x-x-x-x-x-x-x-x-x-x-x-x-x-x-x-x-x-x-x-x-x--||
G|-3-3-3-3-3-3-3-3-3-3-3-3-3-3-3-3-2-2-2-2-2-2-2-2/3-3-3-3-3-3-3-3-3-o||
C|--------------------------------------------------------------------||
...A passion ending so the world ceases turning"

Matt & Padge
D|-------------------------------------------------------------------|
A|-------------------------------------------------------------------|
F|-------------------------------------------------------------------|
C|-3-3-3-3-3-3-3-3-3-3-3-3-3-3-3-3-5-5-5-5-5-5-5-5-5-5-5-5-5-5-5-5-5-|
G|-3-3-3-3-3-3-3-3-3-3-3-3-3-3-3-3-5-5-5-5-5-5-5-5-5-5-5-5-5-5-5-5-5-|
C|-3-3-3-3-3-3-3-3-3-3-3-3-3-3-3-3-5-5-5-5-5-5-5-5-5-5-5-5-5-5-5-5-5-|
"The tank is empty, let it dry, I'm sufferiiiiiinn'"

-Breakdown-
Matt- Light Dist.
D||----------------------------------------------------------------------------------|
A||o---------------------------------------------------------------------------------|
F||----------------------------------------------------------------------------------|
C||--9-9-9-9-9-9-9-9-10-10-10-10-10-10-10-10-9-9-9-9-9-9-9-9-10-10-10-10-10-10-10-10-|
G||o-0-0-0-0-0-0-0-0--0--0--0--0--0--0--0--0-0-0-0-0-0-0-0-0--0--0--0--0--0--0--0--0-|
C||----------------------------------------------------------------------------------|
     - - - - - - - -  -  -  -  -  -  -  -  - - - - - - - - -  -  -  -  -  -  -  -  -
D|------------------------------------------------------------------------------------------||
A|-----------------------------------------------------------------------------------------o||
F|------------------------------------------------------------------------------------------||
C|-9-9-9-9-9-9-9-9-10-10-10-10-10-10-10-10-9--9--9--9--9--9--9--9--10-10-10-10-10-10-10-10--||
G|-8-8-8-8-8-8-8-8--8--8--8--8--8--8--8--8-10-10-10-10-10-10-10-10-10-10-10-10-10-10-10-10-o||
C|------------------------------------------------------------------------------------------||
   - - - - - - - -  -  -  -  -  -  -  -  - -  -  -  -  -  -  -  -  -  -  -  -  -  -  -  -

Matt
D|-----------------------------------------------------------------------------------------|
A|-----------------------------------------------------------------------------------------|
F|-----------------------------------------------------------------------------------------|
C|-10-10-10-10-10-10-10-10-10-10-10-10-10-10-10-10-9-9-9-9-9-9-9-9-10-10-10-10-10-10-10-10-|
G|--0--0--0--0--0--0--0--0--0--0--0--0--0--0--0--0-0-0-0-0-0-0-0-0--0--0--0--0--0--0--0--0-|
C|-----------------------------------------------------------------------------------------|
     -  -  -  -  -  -  -  -  -  -  -  -  -  -  -  - - - - - - - - -  -  -  -  -  -  -  -  -
Padge- Clean
D|-------0~~~-----------------------------------------------------------0~~~---------------|
A|----------1~~~-----------------------------------------------------------1~~~------------|
F|----2~~~-----------------------------------------------------------2~~~------------------|
C|-2~~~-----------------------------------------------------------2~~~---------------------|
G|-----------------------------------------------------------------------------------------|
C|-----------------------------------------------------------------------------------------|
-"Whats happening to me? I'm dying from the inside...

Matt
D|-----------------------------------------------------------------------------------------|
A|-----------------------------------------------------------------------------------------|
F|-----------------------------------------------------------------------------------------|
C|-9-9-9-9-9-9-9-9-10-10-10-10-10-10-10-10-9--9--9--9--9--9--9--9--10-10-10-10-10-10-10-10-|
G|-8-8-8-8-8-8-8-8--8--8--8--8--8--8--8--8-10-10-10-10-10-10-10-10-10-10-10-10-10-10-10-10-|
C|-----------------------------------------------------------------------------------------|
   - - - - - - - -  -  -  -  -  -  -  -  - -  -  -  -  -  -  -  -  -  -  -  -  -  -  -  -
Padge
D|-------0~~~-----------------------------------------------------------0~~~---------------|
A|----------1~~~-----------------------------------------------------------1~~~------------|
F|----2~~~-----------------------------------------------------------2~~~------------------|
C|-2~~~-----------------------------------------------------------2~~~---------------------|
G|-----------------------------------------------------------------------------------------|
C|-----------------------------------------------------------------------------------------|
...Body hurts too much to feel"

Matt
D|-----------------------------------------------------------------------------------------|
A|-----------------------------------------------------------------------------------------|
F|-----------------------------------------------------------------------------------------|
C|-10-10-10-10-10-10-10-10-10-10-10-10-10-10-10-10-9-9-9-9-9-9-9-9-10-10-10-10-10-10-10-10-|
G|--0--0--0--0--0--0--0--0--0--0--0--0--0--0--0--0-0-0-0-0-0-0-0-0--0--0--0--0--0--0--0--0-|
C|-----------------------------------------------------------------------------------------|
     -  -  -  -  -  -  -  -  -  -  -  -  -  -  -  - - - - - - - - -  -  -  -  -  -  -  -  -
Padge
D|-------0~~~-----------------------------------------------------------0~~~---------------|
A|----------1~~~-----------------------------------------------------------1~~~------------|
F|----2~~~-----------------------------------------------------------2~~~------------------|
C|-2~~~-----------------------------------------------------------2~~~---------------------|
G|-----------------------------------------------------------------------------------------|
C|-----------------------------------------------------------------------------------------|
"Pressure adds to pain, Deliver Us From Evil...

Matt
D|-----------------------------------------------------------------------------------------|
A|-----------------------------------------------------------------------------------------|
F|-----------------------------------------------------------------------------------------|
C|-9-9-9-9-9-9-9-9-10-10-10-10-10-10-10-10-9--9--9--9--9--9--9--9--10-10-10-10-10-10-10-10-|
G|-8-8-8-8-8-8-8-8--8--8--8--8--8--8--8--8-10-10-10-10-10-10-10-10-10-10-10-10-10-10-10-10-|
C|-----------------------------------------------------------------------------------------|
Padge
D|-------0~~~-----------------------------------------------------------0~~~---------------|
A|----------1~~~-----------------------------------------------------------1~~~------------|
F|----2~~~-----------------------------------------------------------2~~~------------------|
C|-2~~~-----------------------------------------------------------2~~~---------------------|
G|-----------------------------------------------------------------------------------------|
C|-----------------------------------------------------------------------------------------|
...Mmm Evil, Pressure adds to pain, You're Evil, We're Evil!"

-Solo-
Matt                  T       T
D|------------------------------------------|
A|------------------------------------------|
F|-10b~~~--5~~~~--4h5-12--4h5-14--4h5-2~~~~-|
C|-10b~~~-----------------------------------|
G|------------------------------------------|
C|------------------------------------------|

D|-------------------------------------------------------------------------------|
A|-------------------------------------------------------------------------------|
F|-------------2---------2~~~~~~~~~~~~~~-----------------------------------------|
C|-------------2---------2~~~~~~~~~~~~~~--------------3---------3~~~~~-----------|
G|-0-0-0-0-0-0-0-0-0-0-0-0~~~~~~~~~~~~~~--------------3---------3~~~~~-5--3--2---|
C|----------------------------------------3-3-3-3-3-3-3-3-3-3-3-3~~~~~---------2-|
   - - - - - -   - - - -                  - - - - - -   - - - -
D|-----------------------------------------------------------------------------|
A|-----------------------------------------------------------------------------|
F|-----------------------------------------------------------------------------|
C|-------------5---------5~~~~~~~~~-------------2---------2~~~~~~~~------------|
G|-------------5---------5~~~~~~~~~-------------2---------2~~~~~~~~--5--3--2---|
C|-5-5-5-5-5-5-5-5-5-5-5-5~~~~~~~~~-2-2-2-2-2-2-2-2-2-2-2-2~~~~~~~~----------2-|
   - - - - - -   - - - -            - - - - - -   - - - -

Padge
D|---------------------------------------------------------------------------|
A|-------------------------------------------10----10-13-10----10------8~~~~-|
F|----------------------------9----9-12-9-12----12----------12----12-9-------|
C|----------10----10-12-10-12---12-------------------------------------------|
G|-12-10-12----12------------------------------------------------------------|
C|---------------------------------------------------------------------------|

D|-------------------------------------------------------------|
A|-/13-12-10----10~~~~---15br-15-13-12----12~~~---/13-12-10----|
F|-----------12------------------------14-------------------12-|
C|-------------------------------------------------------------|
G|-------------------------------------------------------------|
C|-------------------------------------------------------------|

D|-12-8---------8-12-8---------8--/15-12----------12-15-12----------12-|
A|------10---10--------10---10-----------13----13----------13----13----|
F|---------9--------------9-----------------12----------------12-------|
C|---------------------------------------------------------------------|
G|---------------------------------------------------------------------|
C|---------------------------------------------------------------------|

D|-/19-15----------15-19-15----------15--20--19--17--15--17~~~-|
A|--------17----17----------17----17---------------------------|
F|-----------16----------------16------------------------------|
C|-------------------------------------------------------------|
G|-------------------------------------------------------------|
C|-------------------------------------------------------------|

-Pre Chorus-
Matt & Padge
D|---------------------------------------------------------|
A|---------------------------------------------------------|
F|---------------------------------------------------------|
C|-3~~~~------5~~~~------7~~~~---9---10---3~~~~------5~~~~-|
G|-3~~~~------5~~~~------7~~~~---9---10---3~~~~------5~~~~-|
C|-3~~~~------5~~~~------7~~~~---9---10---3~~~~------5~~~~-|
"Will darkness turn to light? (WILL DARKNESS TURN TO LIGHT!)

Matt
D|----------------------------------------------|
A|----------------------------------------------|
F|----------------------------------------------|
C|-------9-----10-------9-----10-------9-----10-|
G|-0-0-0---0-0----0-0-0---0-0----0-0-0---0-0----|
C|----------------------------------------------|
   - - -   - -    - - -   - -    - - -   - -
Padge
D|-------------------------------------------------|
A|-------------------------------------------------|
F|-------------------------------------------------|
C|-------12-----14-------12-----14-------12-----14-|
G|-0-0-0----0-0----0-0-0----0-0----0-0-0----0-0----|
C|-------------------------------------------------|
   - - -    -      - - -    - -    - - -    - -
"Can someone wake me from this nightmare"

Matt
D|-------------------------------------------------------------|
A|-------------------------------------------------------------|
F|-------5-4----------5-4--------------------------------------|
C|-3---------5--5---------5--7--------------------9--9--10--10-|
G|-3--3---------5--5---------7--------------------9--9--10--10-|
C|-3--3---------5--5---------7-7-7-7--7-7-7--7-7--9--9--10--10-|
      -            -           - - -  - - -  - -
Padge
D|-------------------------------------------------------------|
A|--------------------5----------------------------------------|
F|-------5-4------------7-5------------------------------------|
C|-3---------5--5------------7--------------------9--9--10--10-|
G|-3--3---------5--5---------7--------------------9--9--10--10-|
C|-3--3---------5--5---------7-7-7-7--7-7-7--7-7--9--9--10--10-|
      -            -           - - -  - - -  - -
"HERE!! WE!! GO!!"

Matt
D|--------------------------------------------------------------|
A|--------------------------------------------------------------|
F|-------5-4----------5-4---------------------------------------|
C|-3---------5--5---------5--7-7-7-7-7-7-7-10-10-10-10-10-10-10-|
G|-3--3---------5--5---------7-7-7-7-7-7-7-10-10-10-10-10-10-10-|
C|-3--3---------5--5---------7-7-7-7-7-7-7-10-10-10-10-10-10-10-|
      -            -
Padge
D|--------------------------------------------------------------|
A|--------------------5-----------------------------------------|
F|-------5-4------------7-5-------------------------------------|
C|-3---------5--5------------7-7-7-7-7-7-7-10-10-10-10-10-10-10-|
G|-3--3---------5--5---------7-7-7-7-7-7-7-10-10-10-10-10-10-10-|
C|-3--3---------5--5---------7-7-7-7-7-7-7-10-10-10-10-10-10-10-|
      -            -
"HERE!! WE!! GOOOOOOOOO!!"

Matt & Padge
D|----------------------|
A|----------------------|
F|----------------------|
C|-3~~~~~~~----5~~~~~~~-|
G|-3~~~~~~~----5~~~~~~~-|
C|-3~~~~~~~----5~~~~~~~-|
"The tank is empty let it dry, I'm sufferin'"

Matt
D|---------------------|
A|---------------------|
F|-/5--4--5/7~~~~------|
C|---------------------|
G|-----------------12\-|
C|-----------------12\-|
Padge
D|---------------------|
A|---------------------|
F|---------------------|
C|-/7--5--7/9~~~~------|
G|---------------------|
C|---------------------|

-Outro-
Matt & Padge
D||--------------------------------------------------------------------|
A||o-------------------------------------------------------------------|
F||--------------------------------------------------------------------|
C||--3-3-3-3-3-3-3-3-3-3-3-3-3-3-3-3-5-5-5-5-5-5-5-5-5-5-5-5-5-5-5-5-5-|
G||o-3-3-3-3-3-3-3-3-3-3-3-3-3-3-3-3-5-5-5-5-5-5-5-5-5-5-5-5-5-5-5-5-5-|
C||--3-3-3-3-3-3-3-3-3-3-3-3-3-3-3-3-5-5-5-5-5-5-5-5-5-5-5-5-5-5-5-5-5-|
"The tank is empty, let it dry, I'm sufferin' (I'M SUFFERIN!!!)...

Matt
D|--------------------------------------------------------------------||
A|-------------------------------------------------------------------o||
F|-9-9-9-9-9-9-9-9-9-9-9-9-9-9-9-9-7-7-7-7-7-7-7-7/9-9-9-9-9-9-9-9-9--||
C|-x-x-x-x-x-x-x-x-x-x-x-x-x-x-x-x-x-x-x-x-x-x-x-x-x-x-x-x-x-x-x-x-x--||
G|-7-7-7-7-7-7-7-7-7-7-7-7-7-7-7-7-5-5-5-5-5-5-5-5/7-7-7-7-7-7-7-7-7-o||
C|--------------------------------------------------------------------||
Padge
D|--------------------------------------------------------------------||
A|-------------------------------------------------------------------o||
F|-5-5-5-5-5-5-5-5-5-5-5-5-5-5-5-5-4-4-4-4-4-4-4-4/5-5-5-5-5-5-5-5-5--||
C|-x-x-x-x-x-x-x-x-x-x-x-x-x-x-x-x-x-x-x-x-x-x-x-x-x-x-x-x-x-x-x-x-x--||
G|-3-3-3-3-3-3-3-3-3-3-3-3-3-3-3-3-2-2-2-2-2-2-2-2/3-3-3-3-3-3-3-3-3-o||
C|--------------------------------------------------------------------||x4
...A passion ending so the world ceases turning"
Related for Deliver Us From Evil tab