Song name
# A B C D E F G H I J K L M N O P Q R S T U V W X Y Z

Bullet For My Valentine - Tears Dont Fall tab

Tears Don't Fall
Bullet For My Valentine
The Poison
Drop C- CGCFAD

-Intro-
Padge- Clean w/Delay
D||-----------------------------------------------------------------------------||
A||o---------------------------------------------------------------------------o||
F||-----9---9-9---9---9-9---10---9----------------------------------------10h12-||
C||-7-7---7-----7---7-----7----7---7-----10---10-10---10-------12----10h12------||
G||o---------------------------------8-8----8-------8----10-10----10-----------o||
C||-----------------------------------------------------------------------------||
    pm-   -     -   -     -    -   - - -    -       -    -  -     -

Padge
D|-----------------------------------------------------------------------------|
A|-----------------------------------------------------------------------------|
F|-----9---9-9---9---9-9---10---9----------------------------------------10h12-|
C|-7-7---7-----7---7-----7----7---7-----10---10-10---10-------12----10h12------|
G|----------------------------------8-8----8-------8----10-10----10------------|
C|-----------------------------------------------------------------------------|
   - -   -     -   -     -    -   - - -    -       -    -  -     -
Matt- Light Distortion
D|-------------------------------------------------------------|
A|-------------------------------------------------------------|
F|-9-9-9-9-9-9-9-9-9-9-9-10-10-10-10-10-10-9--9--9--9--7-7-7-7-|
C|-7-7-7-7-7-7-7-7-7-7-7-12-12-12-12-12-12-10-10-10-10-9-9-9-9-|
G|-------------------------------------------------------------|
C|-------------------------------------------------------------|
   - - - - - - - - - - - -  -  -  -  -  -  -  -  -  -  - - - -

Padge
D|------------------------------------------------------------------------|
A|------------------------------------------------------------------------|
F|-----9---9-9---9---9-9---10---9-----------------------------------------|
C|-7-7---7-----7---7-----7----7---7-----10---10-10---10-------12----10h12-|
G|----------------------------------8-8----8-------8----10-10----10-------|
C|------------------------------------------------------------------------|
   - -   -     -   -     -    -   - - -    -       -    -  -     -
Matt
D|--------------------------------------------|
A|--------------------------------------------|
F|-9-9-9-9-9-9-9-9-9-9-9-10-10-10-10-10-10--9-|
C|-7-7-7-7-7-7-7-7-7-7-7-12-12-12-12-12-12-10-|
G|--------------------------------------------|
C|--------------------------------------------|
   - - - - - - - - - - - -  -  -  -  -  -  -

"LET'S GOOOOOO!!!!!"

Matt- Distortion
D||------------------------------------------------------------------|
A||o---------6-6-6-6-5-5-5-5-6-6-6-6---------------------------------|
F||----------5-5-5-5-5-5-5-5-5-5-5-5---------7-7-7-7-5-5-5-5-4-4-4-4-|
C||--3-3-3-3-3-3-3-3-3-3-3-3-3-3-3-3-5-5-5-5-------------------------|
G||o-3-3-3-3-3-3-3-3-3-3-3-3-3-3-3-3-5-5-5-5-------------------------|
C||--3-3-3-3-3-3-3-3-3-3-3-3-3-3-3-3-5-5-5-5-------------------------|
Padge- Distortion
D||------------------------------------------------------------------|
A||o---------6-6-6-6-5-5-5-5-6-6-6-6---------------------------------|
F||----------5-5-5-5-5-5-5-5-5-5-5-5---------------------------------|
C||--3-3-3-3-3-3-3-3-3-3-3-3-3-3-3-3-5-5-5-5-5-5-5-5-5-5-5-5-5-5-5-5-|
G||o-3-3-3-3-3-3-3-3-3-3-3-3-3-3-3-3-5-5-5-5-5-5-5-5-5-5-5-5-5-5-5-5-|
C||--3-3-3-3-3-3-3-3-3-3-3-3-3-3-3-3-5-5-5-5-5-5-5-5-5-5-5-5-5-5-5-5-|

Matt
D|------------------------------------------------------------------||
A|---------6-6-6-6-5-5-5-5-6-6-6-6---------------------------------o||
F|---------5-5-5-5-5-5-5-5-5-5-5-5---------7-7-7-7-9-9-9-9-4-4-4-4--||
C|-3-3-3-3-3-3-3-3-3-3-3-3-3-3-3-3-5-5-5-5--------------------------||
G|-3-3-3-3-3-3-3-3-3-3-3-3-3-3-3-3-5-5-5-5-------------------------o||
C|-3-3-3-3-3-3-3-3-3-3-3-3-3-3-3-3-5-5-5-5--------------------------||
Padge
D|------------------------------------------------------------------||
A|---------6-6-6-6-5-5-5-5-6-6-6-6---------------------------------o||
F|---------5-5-5-5-5-5-5-5-5-5-5-5----------------------------------||
C|-3-3-3-3-3-3-3-3-3-3-3-3-3-3-3-3-5-5-5-5-5-5-5-5-7-7-7-7-5-5-5-5--||
G|-3-3-3-3-3-3-3-3-3-3-3-3-3-3-3-3-5-5-5-5-5-5-5-5-7-7-7-7-5-5-5-5-o||
C|-3-3-3-3-3-3-3-3-3-3-3-3-3-3-3-3-5-5-5-5-5-5-5-5-7-7-7-7-5-5-5-5--||

Padge- Clean w/Delay
D|--------------------------------|
A|--------------------------------|
F|--------------------------------|
C|-7-7-7-7-7-7-7b-7b-7b-7b-7b-7-7-|
G|--------------------------------|
C|--------------------------------|
   - - - - - - -  -  -  -  -  - -

-Verse-
Padge
D|-----------------------------------------------------------------------------|
A|-----------------------------------------------------------------------------|
F|-----9---9-9---9---9-9---10---9----------------------------------------10h12-|
C|-7-7---7-----7---7-----7----7---7-----10---10-10---10-------12----10h12------|
G|----------------------------------8-8----8-------8----10-10----10------------|
C|-----------------------------------------------------------------------------|
   - -   -     -   -     -    -   - - -    -       -    -  -     -
"With blood shot eyes, I watch you sleepin'

D|------------------------------------------------------------------------|
A|------------------------------------------------------------------------|
F|-----9---9-9---9---9-9---10---9-----------------------------------------|
C|-7-7---7-----7---7-----7----7---7-----10---10-10---10-------12----10h12-|
G|----------------------------------8-8----8-------8----10-10----10-------|
C|------------------------------------------------------------------------|
   - -   -     -   -     -    -   - - -    -       -    -  -     -
“The warmth I feel beside me, is slowly fadin'"

Padge
D|--------||------------------------------------------------------------------------||
A|--------||o----------------------------------------------------------------------o||
F|--------||-----9---9-9---9---9-9---10---9----------9-------9----9-----7-----7---7-||
C|--------||-7-7---7-----7---7-----7----7---7--10-10---10-10---10---9-9---9-9---9---||
G|--------||o----------------------------------------------------------------------o||
C|--------||------------------------------------------------------------------------||
             - -   -     -   -     -    -   -  -  -    -  -    -    - -   - -   -
Matt- Distortion
D|--------||-----------------------------------------------||
A|-[5]----||o---------------------------------------------o||
F|-----[5]||-----------------------------------------------||
C|--------||--2-2-2-2-2-2-2-2-2-2--------------------------||
G|--------||o-0-0-0-0-0-0-0-0-0-0-3-3-3-3-3-3-5-5-5-5-5-5-o||
C|--------||----------------------3-3-3-3-3-3-5-5-5-5-5-5--||
              - - - - - - - - - - - - - - - - - - - - - -
"Would she hear me, if I called her name
Would she hold me, if she knew my shame"

-Pre Chorus-
Padge- Distortion
D|------------------------------------------------|
A|------------------------------------------------|
F|-------12--------------------12-----------------|
C|-/9-10----10-9-10-7~~--/9-10----10-9-10-10/12~~-|
G|------------------------------------------------|
C|------------------------------------------------|
Matt
D|------------------------------------------------------------------------------------|
A|------------------------------------------------------------------------------------|
F|------------------------------------------------------------------------------------|
C|------------------------------------------------------------------------------------|
G|-0-0-0--0-0-0--0-0-0--0-0-0--0-0-0-0-0-0--3-3-3--3-3-3--3-3-3-----------------------|
C|--------------------------------------------------------------3-3-3--3-3-3--3-3-3-3-|
   - - -  - - -  - - -  - - -  - - - - - -  - - -  - - -  - - - - - -  - - -  - - - -
“THERE'S ALWAYS SOMETHING DIFFERENT GOING WRONG!!!
The path I walk's IN THE WRONG DIRECTION!!”

Padge
D|------------------------------------------|
A|------------------------------------------|
F|-------12---------------------------------|
C|-/9-10----10-9-10-7~~--5-5-5-5-7-7-7-7-7\-|
G|------------------------------------------|
C|------------------------------------------|
Matt                     - - - - - - - - -
D|--------------------------------------------------------|
A|--------------------------------------------------------|
F|--------------------------------------------------------|
C|-----------------------------------------3-3-3-5-5-5-7\-|
G|-0-0-0--0-0-0--0-0-0--0-0-0--0-0-0-0-0-0-3-3-3-5-5-5-7\-|
C|-----------------------------------------3-3-3-5-5-5-7\-|
   - - -  - - -  - - -  - - -  - - - - - - - - - - - -
“THERE'S ALWAYS SOMEONE FUCKIN' HANGING ON!!!
Can anybody HELP ME MAKE THINGS BETTER, TRYYYY!!!!”

-Chorus-
Matt
D||------------------------------------------------------------------|
A||o---------6-6-6-6-5-5-5-5-6-6-6-6---------------------------------|
F||----------5-5-5-5-5-5-5-5-5-5-5-5---------7-7-7-7-5-5-5-5-4-4-4-4-|
C||--3-3-3-3-3-3-3-3-3-3-3-3-3-3-3-3-5-5-5-5-------------------------|
G||o-3-3-3-3-3-3-3-3-3-3-3-3-3-3-3-3-5-5-5-5-------------------------|
C||--3-3-3-3-3-3-3-3-3-3-3-3-3-3-3-3-5-5-5-5-------------------------|
Padge
D||------------------------------------------------------------------|
A||o---------6-6-6-6-5-5-5-5-6-6-6-6---------------------------------|
F||----------5-5-5-5-5-5-5-5-5-5-5-5---------------------------------|
C||--3-3-3-3-3-3-3-3-3-3-3-3-3-3-3-3-5-5-5-5-5-5-5-5-5-5-5-5-5-5-5-5-|
G||o-3-3-3-3-3-3-3-3-3-3-3-3-3-3-3-3-5-5-5-5-5-5-5-5-5-5-5-5-5-5-5-5-|
C||--3-3-3-3-3-3-3-3-3-3-3-3-3-3-3-3-5-5-5-5-5-5-5-5-5-5-5-5-5-5-5-5-|
“Your tears don't fall, they crash around meee...

Matt
D|------------------------------------------------------------------||
A|---------6-6-6-6-5-5-5-5-6-6-6-6---------------------------------o||
F|---------5-5-5-5-5-5-5-5-5-5-5-5---------7-7-7-7-9-9-9-9-4-4-4-4--||
C|-3-3-3-3-3-3-3-3-3-3-3-3-3-3-3-3-5-5-5-5--------------------------||
G|-3-3-3-3-3-3-3-3-3-3-3-3-3-3-3-3-5-5-5-5-------------------------o||
C|-3-3-3-3-3-3-3-3-3-3-3-3-3-3-3-3-5-5-5-5--------------------------||
Padge
D|------------------------------------------------------------------||
A|---------6-6-6-6-5-5-5-5-6-6-6-6---------------------------------o||
F|---------5-5-5-5-5-5-5-5-5-5-5-5----------------------------------||
C|-3-3-3-3-3-3-3-3-3-3-3-3-3-3-3-3-5-5-5-5-5-5-5-5-7-7-7-7-5-5-5-5--||
G|-3-3-3-3-3-3-3-3-3-3-3-3-3-3-3-3-5-5-5-5-5-5-5-5-7-7-7-7-5-5-5-5-o||
C|-3-3-3-3-3-3-3-3-3-3-3-3-3-3-3-3-5-5-5-5-5-5-5-5-7-7-7-7-5-5-5-5--||
“Her conscience calls, the guilty to come home”


Padge- Clean w/Delay
D|--------------------------------|
A|--------------------------------|
F|--------------------------------|
C|-7-7-7-7-7-7-7b-7b-7b-7b-7b-7-7-|
G|--------------------------------|
C|--------------------------------|
   - - - - - - -  -  -  -  -  - -

-Verse-
Padge
D|-----------------------------------------------------------------------------|
A|-----------------------------------------------------------------------------|
F|-----9---9-9---9---9-9---10---9----------------------------------------10h12-|
C|-7-7---7-----7---7-----7----7---7-----10---10-10---10-------12----10h12------|
G|----------------------------------8-8----8-------8----10-10----10------------|
C|-----------------------------------------------------------------------------|
   - -   -     -   -     -    -   - - -    -       -    -  -     -
"The moments die, I hear no screamin'

D|------------------------------------------------------------------------|
A|------------------------------------------------------------------------|
F|-----9---9-9---9---9-9---10---9-----------------------------------------|
C|-7-7---7-----7---7-----7----7---7-----10---10-10---10-------12----10h12-|
G|----------------------------------8-8----8-------8----10-10----10-------|
C|------------------------------------------------------------------------|
   - -   -     -   -     -    -   - - -    -       -    -  -     -
“The visions left inside me, are slowly fadin'"

Padge
D|--------||------------------------------------------------------------------------||
A|--------||o----------------------------------------------------------------------o||
F|--------||-----9---9-9---9---9-9---10---9----------9-------9----9-----7-----7---7-||
C|--------||-7-7---7-----7---7-----7----7---7--10-10---10-10---10---9-9---9-9---9---||
G|--------||o----------------------------------------------------------------------o||
C|--------||------------------------------------------------------------------------||
             - -   -     -   -     -    -   -  -  -    -  -    -    - -   - -   -
Matt- Distortion
D|--------||-----------------------------------------------||
A|-[5]----||o---------------------------------------------o||
F|-----[5]||-----------------------------------------------||
C|--------||--2-2-2-2-2-2-2-2-2-2--------------------------||
G|--------||o-0-0-0-0-0-0-0-0-0-0-3-3-3-3-3-3-5-5-5-5-5-5-o||
C|--------||----------------------3-3-3-3-3-3-5-5-5-5-5-5--||
              - - - - - - - - - - - - - - - - - - - - - -
"Would she hear me, if I called her name
Would she hold me, if she knew my shame"

-Pre Chorus-
Padge- Distortion
D|------------------------------------------------|
A|------------------------------------------------|
F|-------12--------------------12-----------------|
C|-/9-10----10-9-10-7~~--/9-10----10-9-10-10/12~~-|
G|------------------------------------------------|
C|------------------------------------------------|
Matt
D|------------------------------------------------------------------------------------|
A|------------------------------------------------------------------------------------|
F|------------------------------------------------------------------------------------|
C|------------------------------------------------------------------------------------|
G|-0-0-0--0-0-0--0-0-0--0-0-0--0-0-0-0-0-0--3-3-3--3-3-3--3-3-3-----------------------|
C|--------------------------------------------------------------3-3-3--3-3-3--3-3-3-3-|
   - - -  - - -  - - -  - - -  - - - - - -  - - -  - - -  - - - - - -  - - -  - - - -
“THERE'S ALWAYS SOMETHING DIFFERENT GOING WRONG!!!
The path I walk's IN THE WRONG DIRECTION!!”

Padge
D|------------------------------------------|
A|------------------------------------------|
F|-------12---------------------------------|
C|-/9-10----10-9-10-7~~--5-5-5-5-7-7-7-7-7\-|
G|------------------------------------------|
C|------------------------------------------|
Matt                     - - - - - - - - -
D|--------------------------------------------------------|
A|--------------------------------------------------------|
F|--------------------------------------------------------|
C|-----------------------------------------3-3-3-5-5-5-7\-|
G|-0-0-0--0-0-0--0-0-0--0-0-0--0-0-0-0-0-0-3-3-3-5-5-5-7\-|
C|-----------------------------------------3-3-3-5-5-5-7\-|
   - - -  - - -  - - -  - - -  - - - - - - - - - - - -
“THERE'S ALWAYS SOMEONE FUCKIN' HANGING ON!!!
Can anybody HELP ME MAKE THINGS BETTER, TRYYYY!!!!”

-Chorus-
Matt
D||------------------------------------------------------------------|
A||o---------6-6-6-6-5-5-5-5-6-6-6-6---------------------------------|
F||----------5-5-5-5-5-5-5-5-5-5-5-5---------7-7-7-7-5-5-5-5-4-4-4-4-|
C||--3-3-3-3-3-3-3-3-3-3-3-3-3-3-3-3-5-5-5-5-------------------------|
G||o-3-3-3-3-3-3-3-3-3-3-3-3-3-3-3-3-5-5-5-5-------------------------|
C||--3-3-3-3-3-3-3-3-3-3-3-3-3-3-3-3-5-5-5-5-------------------------|
Padge
D||------------------------------------------------------------------|
A||o---------6-6-6-6-5-5-5-5-6-6-6-6---------------------------------|
F||----------5-5-5-5-5-5-5-5-5-5-5-5---------------------------------|
C||--3-3-3-3-3-3-3-3-3-3-3-3-3-3-3-3-5-5-5-5-5-5-5-5-5-5-5-5-5-5-5-5-|
G||o-3-3-3-3-3-3-3-3-3-3-3-3-3-3-3-3-5-5-5-5-5-5-5-5-5-5-5-5-5-5-5-5-|
C||--3-3-3-3-3-3-3-3-3-3-3-3-3-3-3-3-5-5-5-5-5-5-5-5-5-5-5-5-5-5-5-5-|
“Your tears don't fall, they crash around meee...

Matt
D|------------------------------------------------------------------||
A|---------6-6-6-6-5-5-5-5-6-6-6-6---------------------------------o||
F|---------5-5-5-5-5-5-5-5-5-5-5-5---------7-7-7-7-9-9-9-9-4-4-4-4--||
C|-3-3-3-3-3-3-3-3-3-3-3-3-3-3-3-3-5-5-5-5--------------------------||
G|-3-3-3-3-3-3-3-3-3-3-3-3-3-3-3-3-5-5-5-5-------------------------o||
C|-3-3-3-3-3-3-3-3-3-3-3-3-3-3-3-3-5-5-5-5--------------------------||
Padge
D|------------------------------------------------------------------||
A|---------6-6-6-6-5-5-5-5-6-6-6-6---------------------------------o||
F|---------5-5-5-5-5-5-5-5-5-5-5-5----------------------------------||
C|-3-3-3-3-3-3-3-3-3-3-3-3-3-3-3-3-5-5-5-5-5-5-5-5-7-7-7-7-5-5-5-5--||
G|-3-3-3-3-3-3-3-3-3-3-3-3-3-3-3-3-5-5-5-5-5-5-5-5-7-7-7-7-5-5-5-5-o||
C|-3-3-3-3-3-3-3-3-3-3-3-3-3-3-3-3-5-5-5-5-5-5-5-5-7-7-7-7-5-5-5-5--||
“Her conscience calls, the guilty to come home”


-Breakdown-
Padge
D||----------------------------------------------------------||
A||o--------------------------------------------------------o||
F||----------------------------------------------------------||
C||----------------------------------------------------------||
G||o-0--0-0-0-0-0--0--0-0-0-0-0--0--0-0-0-0-0--0--0-0-0-0-0-o||
C||----------------------------------------------------------||
     -  - - - - -  -  - - - - -  -  - - - - -  -  - - - - -

Matt & Padge
D|--------------------------------------------------------|
A|--------------------------------------------------------|
F|--------------------------------------------------------|
C|--------------------------------------------------------|
G|-0—-0-0-0-0-0--0--0-0-0-0-0--0--0-0-0-0-0--0--0-0-0-0-0-|
C|--------------------------------------------------------|
   -  - - - - -  -  - - - - -  -  - - - - -  -  - - - - -

D|-----------------------|
A|-----------------------|
F|-pickslide-------------|
C|-x\\\\\\---5-2-5-8-7-5-|
G|-x\\\\\\---3-0-3-6-5-3-|
C|-----------------------|

 Matt
D||-----------------------------------------------------------------------|
A||o----------------------------------------------------------------------|
F||-----------------------------------------------------------------------|
C||-------------------------/10-9-7-9-9-10-7------------------------------|
G||o-0--0-0-0--0-0-0--0-0-0-------------------0--0-0-0-0-/10-8-7-8--3-5-3-|
C||-----------------------------------------------------------------------|
     -  - - -  - - -  - - -                   -  - - - -
Padge
D||-----------------------------------------------------------------------|
A||o----------------------------------------------------------------------|
F||-------------------------/9-7-5-7-7-9-5--------------------------------|
C||-----------------------------------------------------------------------|
G||o-0--0-0-0--0-0-0--0-0-0-------------------0--0-0-0-0-/10-8-7-8--7-8-7-|
C||-----------------------------------------------------------------------|
     -  - - -  - - -  - - -                   -  - - - -

 Matt
D|-----------------------------------------------------||
A|----------------------------------------------------o||
F|-----------------------------------------------------||
C|----------/10-9-7-9-9-10-7--------------5-2-5-8-7-5--||
G|-0--0-0-0-------------------0--0-0-0-0--3-0-3-6-5-3-o||
C|-----------------------------------------------------||
   -  - - -                   -  - - - -
Padge
D|-----------------------------------------------------||
A|-----------------------------------------------------||
F|----------/9-7-5-7-7-9-5-----------------------------||
C|----------------------------------------5-2-5-8-7-5--||
G|-0--0-0-0-------------------0--0-0-0-0--3-0-3-6-5-3-o||
C|-----------------------------------------------------||
   -  - - -                   -  - - - -

   
-Bridge-
Padge
D||------------------------------------------------------------||
A||o----------------------------------------------------------o||
F||---------------------------------------5-5-4-------5-5-4----||
C||--3-3-3-3-3-3-3-3-7-7-7-7-7-7-7-7-0-0--------5--0--------5--||
G||O-3-3-3-3-3-3-3-3-7-7-7-7-7-7-7-7-0-0-----------0----------o||
C||--3-3-3-3-3-3-3-3-7-7-7-7-7-7-7-7-0-0-----------0-----------||
Matt
D||------------------------------------------------------------||
A||o----------------------------------------------------------o||
F||------------------------------------------------------------||
C||--3-3-3-3-3-3-3-3-7-7-7-7-7-7-7-7-0-0--7-7-5----0--7-7-5----||
G||o-3-3-3-3-3-3-3-3-7-7-7-7-7-7-7-7-0-0--------7--0--------7-o||
C||--3-3-3-3-3-3-3-3-7-7-7-7-7-7-7-7-0-0-----------0-----------||
“This batter room I've seen before...
The broken bones they heal no more, no more”

Matt & Padge
D|-----------------------------------------------------------------|
A|-----------------------------------------------------------------|
F|-----------------------------------------------------------------|
C|-3-3-3-3-3-3-3-3-2-2-2-2-2-2-2-2-3-3-3-3-3-3-3-3-5-5-5-5-5-5-5-5-|
G|-3-3-3-3-3-3-3-3-2-2-2-2-2-2-2-2-3-3-3-3-3-3-3-3-5-5-5-5-5-5-5-5-|
C|-3-3-3-3-3-3-3-3-2-2-2-2-2-2-2-2-3-3-3-3-3-3-3-3-5-5-5-5-5-5-5-5-|
“With my last breath, I'm choking. Will this ever end, I'm hoping”

D|---------------------------------|
A|---------------------------------|
F|---------------------------------|
C|-3-3-3-3-3-3-3-3-6-6-6-6-6-6-6-6-|
G|-3-3-3-3-3-3-3-3-6-6-6-6-6-6-6-6-|
C|-3-3-3-3-3-3-3-3-6-6-6-6-6-6-6-6-|
“MY WORLD IS OVER ONE MORE TIME!!!”

Matt
D|--------------------------------------------------------|
A|--------------------------------------------------------|
F|--------------------------------------------------------|
C|--------------------------------------------------------|
G|-0—-0-0-0-0-0--0--0-0-0-0-0--0--0-0-0-0-0--0--0-0-0-0-0-|
C|--------------------------------------------------------|
   -  - - - - -  -  - - - - -  -  - - - - -  -  - - - - -

Matt & Padge
D|---------|
A|---------|
F|-2--2--2-|
C|-2--2--2-|
G|-0--0--0-|
C|---------|

LETS GO!!!

-Solo-
Padge
D|-20p17----17-------20p17----17-------20p17----17-------20p17--------|
A|-------20----20p17-------20----20p17-------20----20p17--------20b~~-|
F|--------------------------------------------------------------------|
C|--------------------------------------------------------------------|
G|--------------------------------------------------------------------|
C|--------------------------------------------------------------------|

D|-20p17----17-------20p17----17-------20p17-----17---------------------|
A|-------20----20p17-------20----20p17--------20----20p17-20p17---------|
F|--------------------------------------------------------------19br~~~-|
C|----------------------------------------------------------------------|
G|----------------------------------------------------------------------|
C|----------------------------------------------------------------------|

D|-------20p17----17--------------------------------------------------|
A|-20p17-------20----20p17--20p17----17-------------------------------|
F|--------------------------------19----19p17-19p17----17----------17-|
C|--------------------------------------------------19----19p17-19~---|
G|--------------------------------------------------------------------|
C|--------------------------------------------------------------------|

D|----------------------------------------------------------------------17----------|
A|-------------------------------------------------------20p17h20p17h20-------------|
F|---------------------17h19p17--------------------------------------------8-7~~~~--|
C|-19-17-17b19---17h19----------19p17--17h19-19-17h19p17----------------------------|
G|----------------------------------------------------------------------------------|
C|----------------------------------------------------------------------------------|

D|-------------------------------------------------------------|
A|-------------gradually-bend-and-release----------------------|
F|-7-7-7-7-7-7-7b-7b-7b-7b-7b-7b-7r-7r-7r-7r-7r-7r-7-7-7-7-7-7-|
C|-------------------------------------------------------------|
G|-------------------------------------------------------------|
C|-------------------------------------------------------------|

D|--------------------------------------------------------------------------------------|
A|--------------------------------------------------------------------------------------|
F|-7p5---5~---5-7b-7p5---5-7b-7p5---5-7b-7p5---5----9h10p9-7h9p7-5h7p5---picksl.--------|
C|-----7----7----------7----------7----------7---5\--------------------7~-x\\\\-3~~~~~~-|
G|------------------------------------------------------------------------x\\\\-1~~~~~~-|
C|--------------------------------------------------------------------------------------|

Matt
D||-----------------------------------------------------------------------|
A||o----------------------------------------------------------------------|
F||-----------------------------------------------------------------------|
C||-------------------------/10-9-7-9-9-10-7------------------------------|
G||o-0--0-0-0--0-0-0--0-0-0-------------------0--0-0-0-0-/10-8-7-8--3-5-3-|
C||-----------------------------------------------------------------------|
     -  - - -  - - -  - - -                   -  - - - -
D|---------------------------------------------------||-------------------|
A|--------------------------------------------------o||-------------------|
F|---------------------------------------------------||-------------------|
C|----------/10-9-7-9-9-10-7--------------5-2-5-8-7--||-5-2-5-8-7-3~~~~~~-|
G|-0--0-0-0-------------------0--0-0-0-0--3-0-3-6-5-o||-3-0-3-6-5-1~~~~~~-|
C|---------------------------------------------------||-------------------|
   -  - - -                   -  - - - -

Padge
D||------------------------------------------------------------------------||
A||o----------------------------------------------------------------------o||
F||-----9---9-9---9---9-9---10---9----------9-------9----9-----7-----7---7-||
C||-7-7---7-----7---7-----7----7---7--10-10---10-10---10---9-9---9-9---9---||
G||o----------------------------------------------------------------------o||
C||------------------------------------------------------------------------||
    - -   -     -   -     -    -   -  -  -    -  -    -    - -   - -   -
Matt
D||-----------------------------------------------||
A||o---------------------------------------------o||
F||-----------------------------------------------||
C||--2-2-2-2-2-2-2-2-2-2--------------------------||
G||o-0-0-0-0-0-0-0-0-0-0-3-3-3-3-3-3-5-5-5-5-5-5-o||
C||----------------------3-3-3-3-3-3-5-5-5-5-5-5--||
     - - - - - - - - - - - - - - - - - - - - - -
"Would she hear me, if I called her name
Would she hold me, if she knew my shame"

-Pre Chorus-
Padge
D|------------------------------------------------|
A|------------------------------------------------|
F|-------12--------------------12-----------------|
C|-/9-10----10-9-10-7~~--/9-10----10-9-10-10/12~~-|
G|------------------------------------------------|
C|------------------------------------------------|
Matt
D|------------------------------------------------------------------------------------|
A|------------------------------------------------------------------------------------|
F|------------------------------------------------------------------------------------|
C|------------------------------------------------------------------------------------|
G|-0-0-0--0-0-0--0-0-0--0-0-0--0-0-0-0-0-0--3-3-3--3-3-3--3-3-3-----------------------|
C|--------------------------------------------------------------3-3-3--3-3-3--3-3-3-3-|
   - - -  - - -  - - -  - - -  - - - - - -  - - -  - - -  - - - - - -  - - -  - - - -
“THERE'S ALWAYS SOMETHING DIFFERENT GOING WRONG!!!
The path I walk's IN THE WRONG DIRECTION!!”

Padge
D|------------------------------------------|
A|------------------------------------------|
F|-------12---------------------------------|
C|-/9-10----10-9-10-7~~--5-5-5-5-7-7-7-7-7\-|
G|------------------------------------------|
C|------------------------------------------|
Matt                     - - - - - - - - -
D|--------------------------------------------------------|
A|--------------------------------------------------------|
F|--------------------------------------------------------|
C|-----------------------------------------3-3-3-5-5-5-7\-|
G|-0-0-0--0-0-0--0-0-0--0-0-0--0-0-0-0-0-0-3-3-3-5-5-5-7\-|
C|-----------------------------------------3-3-3-5-5-5-7\-|
   - - -  - - -  - - -  - - -  - - - - - - - - - - - -
“THERE'S ALWAYS SOMEONE FUCKIN' HANGING ON!!!
Can anybody HELP ME MAKE THINGS BETTER, TRYYYY!!!!”

-Chorus-
Matt
D||------------------------------------------------------------------|
A||o---------6-6-6-6-5-5-5-5-6-6-6-6---------------------------------|
F||----------5-5-5-5-5-5-5-5-5-5-5-5---------7-7-7-7-5-5-5-5-4-4-4-4-|
C||--3-3-3-3-3-3-3-3-3-3-3-3-3-3-3-3-5-5-5-5-------------------------|
G||o-3-3-3-3-3-3-3-3-3-3-3-3-3-3-3-3-5-5-5-5-------------------------|
C||--3-3-3-3-3-3-3-3-3-3-3-3-3-3-3-3-5-5-5-5-------------------------|
Padge
D||------------------------------------------------------------------|
A||o---------6-6-6-6-5-5-5-5-6-6-6-6---------------------------------|
F||----------5-5-5-5-5-5-5-5-5-5-5-5---------------------------------|
C||--3-3-3-3-3-3-3-3-3-3-3-3-3-3-3-3-5-5-5-5-5-5-5-5-5-5-5-5-5-5-5-5-|
G||o-3-3-3-3-3-3-3-3-3-3-3-3-3-3-3-3-5-5-5-5-5-5-5-5-5-5-5-5-5-5-5-5-|
C||--3-3-3-3-3-3-3-3-3-3-3-3-3-3-3-3-5-5-5-5-5-5-5-5-5-5-5-5-5-5-5-5-|
“Your tears don't fall, they crash around meee...
             (Teeeeears don't faaaaaall, cooonscience)

Matt
D|------------------------------------------------------------------||
A|---------6-6-6-6-5-5-5-5-6-6-6-6---------------------------------o||
F|---------5-5-5-5-5-5-5-5-5-5-5-5---------7-7-7-7-9-9-9-9-4-4-4-4--||
C|-3-3-3-3-3-3-3-3-3-3-3-3-3-3-3-3-5-5-5-5--------------------------||
G|-3-3-3-3-3-3-3-3-3-3-3-3-3-3-3-3-5-5-5-5-------------------------o||
C|-3-3-3-3-3-3-3-3-3-3-3-3-3-3-3-3-5-5-5-5--------------------------||
Padge
D|------------------------------------------------------------------||
A|---------6-6-6-6-5-5-5-5-6-6-6-6---------------------------------o||
F|---------5-5-5-5-5-5-5-5-5-5-5-5----------------------------------||
C|-3-3-3-3-3-3-3-3-3-3-3-3-3-3-3-3-5-5-5-5-5-5-5-5-7-7-7-7-5-5-5-5--||
G|-3-3-3-3-3-3-3-3-3-3-3-3-3-3-3-3-5-5-5-5-5-5-5-5-7-7-7-7-5-5-5-5-o||
C|-3-3-3-3-3-3-3-3-3-3-3-3-3-3-3-3-5-5-5-5-5-5-5-5-7-7-7-7-5-5-5-5--||
“Her conscience calls, the guilty to come home”
(Caaaaaallls)

Matt
D|--------------------------|
A|--------------------------|
F|-------12br---------------|
C|-12-14------14-12-14-10~~-|
G|--------------------------|
C|--------------------------|
Padge
D|----------------------|
A|----------------------|
F|------9br-------------|
C|-9-10-----10-9-10-7~~-|
G|----------------------|
C|----------------------|

BETTERRRRR!!!!!

Matt
D|-----------------------------------------------------------------|
A|---------6-6-6-6-5-5-5-5-6-6-6-6---------------------------------|
F|---------5-5-5-5-5-5-5-5-5-5-5-5---------7-7-7-7-5-5-5-5-4-4-4-4-|
C|-3-3-3-3-3-3-3-3-3-3-3-3-3-3-3-3-5-5-5-5-------------------------|
G|-3-3-3-3-3-3-3-3-3-3-3-3-3-3-3-3-5-5-5-5-------------------------|
C|-3-3-3-3-3-3-3-3-3-3-3-3-3-3-3-3-5-5-5-5-------------------------|
Padge
D|-----------------------------------------------------------------|
A|---------6-6-6-6-5-5-5-5-6-6-6-6---------------------------------|
F|---------5-5-5-5-5-5-5-5-5-5-5-5---------------------------------|
C|-3-3-3-3-3-3-3-3-3-3-3-3-3-3-3-3-5-5-5-5-5-5-5-5-5-5-5-5-5-5-5-5-|
G|-3-3-3-3-3-3-3-3-3-3-3-3-3-3-3-3-5-5-5-5-5-5-5-5-5-5-5-5-5-5-5-5-|
C|-3-3-3-3-3-3-3-3-3-3-3-3-3-3-3-3-5-5-5-5-5-5-5-5-5-5-5-5-5-5-5-5-|
“Your tears don't fall, they crash around meee...
                                      (Cooooonscience caallls)
Matt
D|-----------------------------------------------------------------|
A|---------6-6-6-6-5-5-5-5-6-6-6-6---------------------------------|
F|---------5-5-5-5-5-5-5-5-5-5-5-5---------7-7-7-7-9-9-9-9-4-4-4-4-|
C|-3-3-3-3-3-3-3-3-3-3-3-3-3-3-3-3-5-5-5-5-------------------------|
G|-3-3-3-3-3-3-3-3-3-3-3-3-3-3-3-3-5-5-5-5-------------------------|
C|-3-3-3-3-3-3-3-3-3-3-3-3-3-3-3-3-5-5-5-5-------------------------|
Padge
D|-----------------------------------------------------------------|
A|---------6-6-6-6-5-5-5-5-6-6-6-6---------------------------------|
F|---------5-5-5-5-5-5-5-5-5-5-5-5---------------------------------|
C|-3-3-3-3-3-3-3-3-3-3-3-3-3-3-3-3-5-5-5-5-5-5-5-5-7-7-7-7-5-5-5-5-|
G|-3-3-3-3-3-3-3-3-3-3-3-3-3-3-3-3-5-5-5-5-5-5-5-5-7-7-7-7-5-5-5-5-|
C|-3-3-3-3-3-3-3-3-3-3-3-3-3-3-3-3-5-5-5-5-5-5-5-5-7-7-7-7-5-5-5-5-|
“Her conscience calls, the guilty to come hoooome”
                       (THE GUILTY TO COME HOOOOME!!!)

Padge
D|--------------------------------------------------------|
A|--------------------------------------------------------|
F|-------12br---------------------------------------------|
C|-12-14------14-12-14-10~~~--9-10-10/12-10-9-10-10/12~~~-|
G|--------------------------------------------------------|
C|--------------------------------------------------------|
Matt
D|-----------------------------------------------------------------|
A|-----------------------------------------------------------------|
F|-----------------------------------------------------------------|
C|-3-3-3-3-3-3-3-3-3-3-3-3-3-3-3-3-5-5-5-5-5-5-5-5-5-5-5-5-5-5-5-5-|
G|-3-3-3-3-3-3-3-3-3-3-3-3-3-3-3-3-5-5-5-5-5-5-5-5-5-5-5-5-5-5-5-5-|
C|-3-3-3-3-3-3-3-3-3-3-3-3-3-3-3-3-5-5-5-5-5-5-5-5-5-5-5-5-5-5-5-5-|

Padge
D|--------------------------------------------------------|
A|--------------------------------------------------------|
F|-------12br---------------------------------------------|
C|-12-14------14-12-14-10~~~--9-10-10/12-10-9-10-10/12~~~-|
G|--------------------------------------------------------|
C|--------------------------------------------------------|
Matt
D|-----------------------------------------------------------------|
A|-----------------------------------------------------------------|
F|-----------------------------------------------------------------|
C|-3-3-3-3-3-3-3-3-3-3-3-3-3-3-3-3-5-5-5-5-5-5-5-5-7-7-7-7-5-5-5-5-|
G|-3-3-3-3-3-3-3-3-3-3-3-3-3-3-3-3-5-5-5-5-5-5-5-5-7-7-7-7-5-5-5-5-|
C|-3-3-3-3-3-3-3-3-3-3-3-3-3-3-3-3-5-5-5-5-5-5-5-5-7-7-7-7-5-5-5-5-|

Matt
D|--------------------------------------------------------|
A|--------------------------------------------------------|
F|-------12br---------------------------------------------|
C|-12-14------14-12-14-10~~~--9-10-10/12-10-9-10-10/12~~~-|
G|--------------------------------------------------------|
C|--------------------------------------------------------|
Padge
D|---------------------------------------------|
A|---------------------------------------------|
F|------9br------------------------------------|
C|-9-10-----10-9-10-7~~~--5-7-7/9-7-5-7-7/9~~~-|
G|---------------------------------------------|
C|---------------------------------------------|

Matt
D|----------------------------------------------|
A|----------------------------------------------|
F|-------12br-----------------------------------|
C|-12-14------14-12-14-10~~~--/9-10-10/12~~~~~~-|
G|----------------------------------------------|
C|----------------------------------------------|
Padge
D|-------------------------------------------------|
A|-------------------------------------------------|
F|------9br--------------------------------picksl.-|
C|-9-10-----10-9-10-7~~~--/5~-7~-7/9~~~~~~-x\\\\\\-|
G|-----------------------------------------x\\\\\\-|
C|-------------------------------------------------|

 Matt
D|--------------------------------------------------------------------|
A|--------------------------------------------------------------------|
F|--------------------------------------------------------------------|
C|------------------------/10-9-7-9-9-10-7--------------5-2-5-8-7-5-2-|
G|-0--0-0-0--0-0-0--0-0-0-------------------0--0-0-0-0--3-0-3-6-5-3-0-|
C|--------------------------------------------------------------------|
   -  - - -  - - -  - - -                   -  - - - -
Padge
D|--------------------------------------------------------------------|
A|--------------------------------------------------------------------|
F|------------------------/9-7-5-7-7-9-5------------------------------|
C|------------------------------------------------------5-2-5-8-7-5-2-|
G|-0--0-0-0--0-0-0--0-0-0-------------------0--0-0-0-0--3-0-3-6-5-3-0-|
C|--------------------------------------------------------------------|
   -  - - -  - - -  - - -                   -  - - - -
Tap to rate this tab
# A B C D E F G H I J K L M N O P Q R S T U V W X Y Z