Song name
# A B C D E F G H I J K L M N O P Q R S T U V W X Y Z

Bullet For My Valentine - Forever And Always tab

Forever And Always
Bullet For My Valentine
Scream Aim Fire
Drop C- CGCFAD

-Intro
Matt
D|------------------|
A|------------------|
F|------------------|
C|------------------|
G|-/5--4--2--0------|
C|-------------2br--|
Padge
D|------------------|
A|------------------|
F|------------------|
C|------------------|
G|-/9--7--5--4------|
C|-------------2br--|

Padge
D|------------------------------------------------------------------|
A|------------------------------------------------------------------|
F|-----7-----6-----9-----7-----6h7------7-----6-----9-----7-----7p6-|
C|---7-----7-----7-----7-----7--------7-----7-----7-----7-----7-----|
G|-5-----5-----5-----5-----5--------5-----5-----5-----5-----5-------|
C|------------------------------------------------------------------|
   - -   - -   - -   - -   - -      - -   - -   - -   - -   - -
Matt
D|------------------------------------------------------------------|
A|------------------------------------------------------------------|
F|------------------------------------------------------------------|
C|-0~~~~~~~~~~~~~~~~~~~~~~~~~~~~~~~~~~~~~~~~~~~~~~~~~~~~~~~~~~~~~~~-|
G|-0~~~~~~~~~~~~~~~~~~~~~~~~~~~~~~~~~~~~~~~~~~~~~~~~~~~~~~~~~~~~~~~-|
C|-0~~~~~~~~~~~~~~~~~~~~~~~~~~~~~~~~~~~~~~~~~~~~~~~~~~~~~~~~~~~~~~~-|

Padge
D|------------------------------------------------------------------|
A|-----3-----2-----5-----3-----2h3----------------------------------|
F|--------------------------------------7-----6-----9-----7-----7p6-|
C|---4-----4-----4-----4-----4--------------------------------------|
G|-2-----2-----2-----2-----2----------5-----5-----5-----5-----5-----|
C|----------------------------------5-----5-----5-----5-----5-------|
   - -   - -   - -   - -   - -      - -   - -   - -   - -   - -
Matt
D|------------------------------------------------------------------|
A|------------------------------------------------------------------|
F|-4~~~~~~~~~~~~~~~~~~~~~~~~~~~~~~~---------------------------------|
C|-4~~~~~~~~~~~~~~~~~~~~~~~~~~~~~~~-5~~~~~~~~~~~~~~~~~~~~~~~~~~~~~~-|
G|-2~~~~~~~~~~~~~~~~~~~~~~~~~~~~~~~-5~~~~~~~~~~~~~~~~~~~~~~~~~~~~~~-|
C|----------------------------------5~~~~~~~~~~~~~~~~~~~~~~~~~~~~~~-|
                                  "...Forever and Always"

Padge
D|------------------------------------------------------------------|
A|------------------------------------------------------------------|
F|-----7-----6-----9-----7-----6h7------7-----6-----9-----7-----7p6-|
C|---7-----7-----7-----7-----7--------7-----7-----7-----7-----7-----|
G|-5-----5-----5-----5-----5--------5-----5-----5-----5-----5-------|
C|------------------------------------------------------------------|
   - -   - -   - -   - -   - -      - -   - -   - -   - -   - -
Matt
D|------------------------------------------------------------------|
A|------------------------------------------------------------------|
F|------------------------------------------------------------------|
C|---------0---------------0----------------0---------------0-------|
G|-000-0-0-0-0-0-0-000-0-0-0-0-4h5--000-0-0-0-0-0-0-000-0-0-0-0-5p4-|
C|-000-0-0-0-0-0-0-000-0-0-0-0------000-0-0-0-0-0-0-000-0-0-0-0-----|
   --- - -   - - - --- - -   -      --- - -   - - - --- - -   -

Padge
D|------------------------------------------------------------------|
A|-----3-----2-----5-----3-----2h3----------------------------------|
F|--------------------------------------7-----6-----9-----7-----7p6-|
C|---4-----4-----4-----4-----4--------------------------------------|
G|-2-----2-----2-----2-----2----------5-----5-----5-----5-----5-----|
C|----------------------------------5-----5-----5-----5-----5-------|
   - -   - -   - -   - -   - -      - -   - -   - -   - -   - -
Matt
D|------------------------------------------------------------------|
A|------------------------------------------------------------------|
F|----------4----------------4---4----------------------------------|
C|-444--4-4-4-4-4-4--444-4-4-4-4-4-----------5----------------5---5-|
G|-222--2-2-2-2-2-2--222-2-2-2-2-2--555--5-5-5-5-5-5--555-5-5-5-5-5-|
C|----------------------------------555--5-5-5-5-5-5--555-5-5-5-5-5-|
   ---  - -   - - -  --- - -   -    ---  - -   - - -  --- - -   -

Padge
D|------------------------------------------------------------------|
A|------------------------------------------------------------------|
F|-----7-----6-----9-----7-----6h7------7-----6-----9-----7-----7p6-|
C|---7-----7-----7-----7-----7--------7-----7-----7-----7-----7-----|
G|-5-----5-----5-----5-----5--------5-----5-----5-----5-----5-------|
C|------------------------------------------------------------------|
   - -   - -   - -   - -   - -      - -   - -   - -   - -   - -
Matt
D|------------------------------------------------------------------|
A|------------------------------------------------------------------|
F|------------------------------------------------------------------|
C|---------0---------------0----------------0---------------0-------|
G|-000-0-0-0-0-0-0-000-0-0-0-0-4h5--000-0-0-0-0-0-0-000-0-0-0-0-5p4-|
C|-000-0-0-0-0-0-0-000-0-0-0-0------000-0-0-0-0-0-0-000-0-0-0-0-----|
   --- - -   - - - --- - -   -      --- - -   - - - --- - -   -

Padge
D|--------------------------------------------------------------------|
A|-----3-----2-----5-----3-----2h3------------------------------------|
F|--------------------------------------7-----6-----------------------|
C|---4-----4-----4-----4-----4----------------------------------------|
G|-2-----2-----2-----2-----2----------5-----5-----5---/9--7--5--4-----|
C|----------------------------------5-----5-----5-----------------2br-|
   - -   - -   - -   - -   - -      - -   - -   - - 
Matt
D|--------------------------------------------------------------------|
A|--------------------------------------------------------------------|
F|----------4----------------4---4------------------------------------|
C|-444--4-4-4-4-4-4--444-4-4-4-4-4-----------5------------------------|
G|-222--2-2-2-2-2-2--222-2-2-2-2-2--555--5-5-5-5-5-5--/5--4--2--0-----|
C|----------------------------------555--5-5-5-5-5-5--------------2br-|
   ---  - -   - - -  --- - -   -    ---  - -   - - -

-Verse-
Matt & Padge
D||-----------------------------------------------------|
A||o----------------------------------------------------|
F||-----------------------------------------------------|
C||----------0~~~~~~~~~~~~~~~~~~~~~~~~~~~~~~~~~~~~~~~~~-|
G||o-000-0-0-0~~~~~~~~~~~~~~~~~~~~~~~~~~~~~~~~~~~~~~~~~-|
C||--000-0-0-0~~~~~~~~~~~~~~~~~~~~~~~~~~~~~~~~~~~~~~~~~-|
-"That time is here again, prepare to be apart...
-"Each time I go away, the distance gets longer...

Matt
D|------------------------------------------------------------------||
A|-----------------------------------------------------------------o||
F|------------------------------------------------------------------||
C|---------4---------------4---4h5----------2-------4---2---0h2-0h2-||
G|-2-2-2-2---2-2-2-2-2-2-2---2------0-0-0-0---0-0-0---0---0--------o||
C|------------------------------------------------------------------||
   - - - -   - - - - - - -   -      - - - -   - - -   -   -
Padge
D|------------------------------------------------------------------||
A|-----------------------------------------------------------------o||
F|------------------------------------------------------------------||
C|---------7---------------7---7h9----------5-------7---5---4h5-4h5-||
G|-5-5-5-5---5-5-5-5-5-5-5---5------4-4-4-4---4-4-4---4---4--------o||
C|------------------------------------------------------------------||
   - - - -   - - - - - - -   -      - - - -   - - -   -   -
...And it drives you crazy"
...But it makes us stronger"

-Pre Chorus-
Padge
D|-------------------------------------------------------------------------------------|
A|---------8-8-8-8-7-7-7-7-5-5-5-----------8-8-8-8-7-7-7-7-8-8-8---------8-8-8-8-7-7-7-|
F|---------7-7-7-7-7-7-7-7-7-7-7-----------7-7-7-7-7-7-7-7-7-7-7---------7-7-7-7-7-7-7-|
C|---------5-5-5-5-5-5-5-5-5-5-5--0--0--0--5-5-5-5-5-5-5-5-5-5-5---------5-5-5-5-5-5-5-|
G|-555-5-5-5----------------------0--0--0------------------------555-5-5---------------|
C|-555-5-5-5----------------------0--0--0------------------------555-5-5---------------|
   --- - -                        -  -  -
Matt
D|-------------------------------------------------------------------------------------|
A|-------------------------------------------------------------------------------------|
F|-------------------------------------------------------------------------------------|
C|---------5~~~~~~~~~~~~~~~~~-/9\--0--0--0--0~~~~~~~~~~~~~~~~~~~---------5~~~~~~~~~~~~-|
G|-555-5-5-5~~~~~~~~~~~~~~~~~-/9\--0--0--0--0~~~~~~~~~~~~~~~~~~~-555-5-5-5~~~~~~~~~~~~-|
C|-555-5-5-5~~~~~~~~~~~~~~~~~-/9\--0--0--0--0~~~~~~~~~~~~~~~~~~~-555-5-5-5~~~~~~~~~~~~-|
   --- - -                         -  -  -                       --- - -
"Should it all come crashing down around me, would you be there...

Matt & Padge
D|-------------------|
A|-------------------|
F|-------------------|
C|-7-7-7-7-7-7-7-7-7-|
G|-7-7-7-7-7-7-7-7-7-|
C|-7-7-7-7-7-7-7-7-7-|
   - - - - - - - -
...Should I stumble or fall to"


"Pick up the pieces"

-Chorus-
Padge
D|------------------------------------------------------------------|
A|------------------------------------------------------------------|
F|-----7-----6-----9-----7-----6h7------7-----6-----9-----7-----7p6-|
C|---7-----7-----7-----7-----7--------7-----7-----7-----7-----7-----|
G|-5-----5-----5-----5-----5--------5-----5-----5-----5-----5-------|
C|------------------------------------------------------------------|
   - -   - -   - -   - -   - -      - -   - -   - -   - -   - -
Matt
D|------------------------------------------------------------------|
A|------------------------------------------------------------------|
F|------------------------------------------------------------------|
C|---------0---------------0----------------0---------------0-------|
G|-000-0-0-0-0-0-0-000-0-0-0-0-4h5--000-0-0-0-0-0-0-000-0-0-0-0-5p4-|
C|-000-0-0-0-0-0-0-000-0-0-0-0------000-0-0-0-0-0-0-000-0-0-0-0-----|
   --- - -   - - - --- - -   -      --- - -   - - - --- - -   -
"(Whooaa Ohh Oh) Forget about the shit that we've been through"

Padge
D|------------------------------------------------------------------|
A|-----3-----2-----5-----3-----2h3----------------------------------|
F|--------------------------------------7-----6-----9-----7-----7p6-|
C|---4-----4-----4-----4-----4--------------------------------------|
G|-2-----2-----2-----2-----2----------5-----5-----5-----5-----5-----|
C|----------------------------------5-----5-----5-----5-----5-------|
   - -   - -   - -   - -   - -      - -   - -   - -   - -   - -
Matt
D|------------------------------------------------------------------|
A|------------------------------------------------------------------|
F|----------4----------------4---4----------------------------------|
C|-444--4-4-4-4-4-4--444-4-4-4-4-4-----------5----------------5---5-|
G|-222--2-2-2-2-2-2--222-2-2-2-2-2--555--5-5-5-5-5-5--555-5-5-5-5-5-|
C|----------------------------------555--5-5-5-5-5-5--555-5-5-5-5-5-|
   ---  - -   - - -  --- - -   -    ---  - -   - - -  --- - -   -
"I wanna stay here Foorreevverr And Alwaaays"

Padge
D|------------------------------------------------------------------|
A|------------------------------------------------------------------|
F|-----7-----6-----9-----7-----6h7------7-----6-----9-----7-----7p6-|
C|---7-----7-----7-----7-----7--------7-----7-----7-----7-----7-----|
G|-5-----5-----5-----5-----5--------5-----5-----5-----5-----5-------|
C|------------------------------------------------------------------|
   - -   - -   - -   - -   - -      - -   - -   - -   - -   - -
Matt
D|------------------------------------------------------------------|
A|------------------------------------------------------------------|
F|------------------------------------------------------------------|
C|---------0---------------0----------------0---------------0-------|
G|-000-0-0-0-0-0-0-000-0-0-0-0-4h5--000-0-0-0-0-0-0-000-0-0-0-0-5p4-|
C|-000-0-0-0-0-0-0-000-0-0-0-0------000-0-0-0-0-0-0-000-0-0-0-0-----|
   --- - -   - - - --- - -   -      --- - -   - - - --- - -   -
"(Whooaaa Ohh Oh) Standing here in front of all of you"

Padge
D|--------------------------------------------------------------------|
A|-----3-----2-----5-----3-----2h3------------------------------------|
F|--------------------------------------7-----6-----------------------|
C|---4-----4-----4-----4-----4----------------------------------------|
G|-2-----2-----2-----2-----2----------5-----5-----5---/9--7--5--4-----|
C|----------------------------------5-----5-----5-----------------2br-|
   - -   - -   - -   - -   - -      - -   - -   - - 
Matt
D|--------------------------------------------------------------------|
A|--------------------------------------------------------------------|
F|----------4----------------4---4------------------------------------|
C|-444--4-4-4-4-4-4--444-4-4-4-4-4-----------5------------------------|
G|-222--2-2-2-2-2-2--222-2-2-2-2-2--555--5-5-5-5-5-5--/5--4--2--0-----|
C|----------------------------------555--5-5-5-5-5-5--------------2br-|
   ---  - -   - - -  --- - -   -    ---  - -   - - -
"I wanna stay here Forever And Always"

-Verse-
Matt & Padge
D||-----------------------------------------------------|
A||o----------------------------------------------------|
F||-----------------------------------------------------|
C||----------0~~~~~~~~~~~~~~~~~~~~~~~~~~~~~~~~~~~~~~~~~-|
G||o-000-0-0-0~~~~~~~~~~~~~~~~~~~~~~~~~~~~~~~~~~~~~~~~~-|
C||--000-0-0-0~~~~~~~~~~~~~~~~~~~~~~~~~~~~~~~~~~~~~~~~~-|
-"These days are dead again, its emtpy from the start...
-"The hours drift away, it hurts to remember...

Matt
D|------------------------------------------------------------------||
A|-----------------------------------------------------------------o||
F|------------------------------------------------------------------||
C|---------4---------------4---4h5----------2-------4---2---0h2-0h2-||
G|-2-2-2-2---2-2-2-2-2-2-2---2------0-0-0-0---0-0-0---0---0--------o||
C|------------------------------------------------------------------||
   - - - -   - - - - - - -   -      - - - -   - - -   -   -
Padge
D|------------------------------------------------------------------||
A|-----------------------------------------------------------------o||
F|------------------------------------------------------------------||
C|---------7---------------7---7h9----------5-------7---5---4h5-4h5-||
G|-5-5-5-5---5-5-5-5-5-5-5---5------4-4-4-4---4-4-4---4---4--------o||
C|------------------------------------------------------------------||
   - - - -   - - - - - - -   -      - - - -   - - -   -   -
...And it drives me crazy"
...This will soon be over"

-Pre Chorus-
Padge
D|-------------------------------------------------------------------------------------|
A|---------8-8-8-8-7-7-7-7-5-5-5-----------8-8-8-8-7-7-7-7-8-8-8---------8-8-8-8-7-7-7-|
F|---------7-7-7-7-7-7-7-7-7-7-7-----------7-7-7-7-7-7-7-7-7-7-7---------7-7-7-7-7-7-7-|
C|---------5-5-5-5-5-5-5-5-5-5-5--0--0--0--5-5-5-5-5-5-5-5-5-5-5---------5-5-5-5-5-5-5-|
G|-555-5-5-5----------------------0--0--0------------------------555-5-5---------------|
C|-555-5-5-5----------------------0--0--0------------------------555-5-5---------------|
   --- - -                        -  -  -
Matt
D|-------------------------------------------------------------------------------------|
A|-------------------------------------------------------------------------------------|
F|-------------------------------------------------------------------------------------|
C|---------5~~~~~~~~~~~~~~~~~-/9\--0--0--0--0~~~~~~~~~~~~~~~~~~~---------5~~~~~~~~~~~~-|
G|-555-5-5-5~~~~~~~~~~~~~~~~~-/9\--0--0--0--0~~~~~~~~~~~~~~~~~~~-555-5-5-5~~~~~~~~~~~~-|
C|-555-5-5-5~~~~~~~~~~~~~~~~~-/9\--0--0--0--0~~~~~~~~~~~~~~~~~~~-555-5-5-5~~~~~~~~~~~~-|
   --- - -                         -  -  -                       --- - -
"Should it all come crashing down around me, would you be there...

Matt & Padge
D|-------------------|
A|-------------------|
F|-------------------|
C|-7-7-7-7-7-7-7-7-7-|
G|-7-7-7-7-7-7-7-7-7-|
C|-7-7-7-7-7-7-7-7-7-|
   - - - - - - - -
...Should I stumble or fall to"


"Pick up the pieces"

-Chorus-
Padge
D|------------------------------------------------------------------|
A|------------------------------------------------------------------|
F|-----7-----6-----9-----7-----6h7------7-----6-----9-----7-----7p6-|
C|---7-----7-----7-----7-----7--------7-----7-----7-----7-----7-----|
G|-5-----5-----5-----5-----5--------5-----5-----5-----5-----5-------|
C|------------------------------------------------------------------|
   - -   - -   - -   - -   - -      - -   - -   - -   - -   - -
Matt
D|------------------------------------------------------------------|
A|------------------------------------------------------------------|
F|------------------------------------------------------------------|
C|---------0---------------0----------------0---------------0-------|
G|-000-0-0-0-0-0-0-000-0-0-0-0-4h5--000-0-0-0-0-0-0-000-0-0-0-0-5p4-|
C|-000-0-0-0-0-0-0-000-0-0-0-0------000-0-0-0-0-0-0-000-0-0-0-0-----|
   --- - -   - - - --- - -   -      --- - -   - - - --- - -   -
"(Whooaa Ohh Oh) Forget about the shit that we've been through"

Padge
D|------------------------------------------------------------------|
A|-----3-----2-----5-----3-----2h3----------------------------------|
F|--------------------------------------7-----6-----9-----7-----7p6-|
C|---4-----4-----4-----4-----4--------------------------------------|
G|-2-----2-----2-----2-----2----------5-----5-----5-----5-----5-----|
C|----------------------------------5-----5-----5-----5-----5-------|
   - -   - -   - -   - -   - -      - -   - -   - -   - -   - -
Matt
D|------------------------------------------------------------------|
A|------------------------------------------------------------------|
F|----------4----------------4---4----------------------------------|
C|-444--4-4-4-4-4-4--444-4-4-4-4-4-----------5----------------5---5-|
G|-222--2-2-2-2-2-2--222-2-2-2-2-2--555--5-5-5-5-5-5--555-5-5-5-5-5-|
C|----------------------------------555--5-5-5-5-5-5--555-5-5-5-5-5-|
   ---  - -   - - -  --- - -   -    ---  - -   - - -  --- - -   -
"I wanna stay here Foorreevverr And Alwaaays"

Padge
D|------------------------------------------------------------------|
A|------------------------------------------------------------------|
F|-----7-----6-----9-----7-----6h7------7-----6-----9-----7-----7p6-|
C|---7-----7-----7-----7-----7--------7-----7-----7-----7-----7-----|
G|-5-----5-----5-----5-----5--------5-----5-----5-----5-----5-------|
C|------------------------------------------------------------------|
   - -   - -   - -   - -   - -      - -   - -   - -   - -   - -
Matt
D|------------------------------------------------------------------|
A|------------------------------------------------------------------|
F|------------------------------------------------------------------|
C|---------0---------------0----------------0---------------0-------|
G|-000-0-0-0-0-0-0-000-0-0-0-0-4h5--000-0-0-0-0-0-0-000-0-0-0-0-5p4-|
C|-000-0-0-0-0-0-0-000-0-0-0-0------000-0-0-0-0-0-0-000-0-0-0-0-----|
   --- - -   - - - --- - -   -      --- - -   - - - --- - -   -
"(Whooaaa Ohh Oh) Standing here in front of all of you"

Padge
D|--------------------------------------------------------------------|
A|-----3-----2-----5-----3-----2h3------------------------------------|
F|--------------------------------------7-----6-----------------------|
C|---4-----4-----4-----4-----4----------------------------------------|
G|-2-----2-----2-----2-----2----------5-----5-----5---/9--7--5--4-----|
C|----------------------------------5-----5-----5-----------------2br-|
   - -   - -   - -   - -   - -      - -   - -   - - 
Matt
D|--------------------------------------------------------------------|
A|--------------------------------------------------------------------|
F|----------4----------------4---4------------------------------------|
C|-444--4-4-4-4-4-4--444-4-4-4-4-4-----------5------------------------|
G|-222--2-2-2-2-2-2--222-2-2-2-2-2--555--5-5-5-5-5-5--/5--4--2--0-----|
C|----------------------------------555--5-5-5-5-5-5--------------2br-|
   ---  - -   - - -  --- - -   -    ---  - -   - - -
"I wanna stay here Forever And Always"

-Breakdown-
Padge
D||--T-----T-----T----T-----T-----T----------||
A||o-15p3--10p3--5p3--15p3--10p3--5p3-3/5\3-o||
F||------------------------------------------||
C||------------------------------------------||
G||o----------------------------------------o||x4
C||------------------------------------------||
Matt
D||------------------------------------------||
A||o----------------------------------------o||
F||------------------------------------------||
C||--0~~~~~~~~~~~~~~~~~~~~~~~~~~~~~~~~~~~~~~-||
G||o-0~~~~~~~~~~~~~~~~~~~~~~~~~~~~~~~~~~~~~~o||x4
C||--0~~~~~~~~~~~~~~~~~~~~~~~~~~~~~~~~~~~~~~-||

Padge
D|------------------------------------------------------------------|
A|------------------------------------------------------------------|
F|-----7-----6-----9-----7-----6h7------7-----6-----9-----7-----7p6-|
C|---7-----7-----7-----7-----7--------7-----7-----7-----7-----7-----|
G|-5-----5-----5-----5-----5--------5-----5-----5-----5-----5-------|
C|------------------------------------------------------------------|
   - -   - -   - -   - -   - -      - -   - -   - -   - -   - -
D|------------------------------------------------------------------|
A|-----3-----2-----5-----3-----2h3----------------------------------|
F|--------------------------------------7-----6-----9-----7-----7p6-|
C|---4-----4-----4-----4-----4--------------------------------------|
G|-2-----2-----2-----2-----2----------5-----5-----5-----5-----5-----|
C|----------------------------------5-----5-----5-----5-----5-------|
   - -   - -   - -   - -   - -      - -   - -   - -   - -   - -

Padge
D|------------------------------------------------------------------|
A|------------------------------------------------------------------|
F|-----7-----6-----9-----7-----6h7------7-----6-----9-----7-----7p6-|
C|---7-----7-----7-----7-----7--------7-----7-----7-----7-----7-----|
G|-5-----5-----5-----5-----5--------5-----5-----5-----5-----5-------|
C|------------------------------------------------------------------|
   - -   - -   - -   - -   - -      - -   - -   - -   - -   - -
Matt
D|------------------------------------------------------------------|
A|------------------------------------------------------------------|
F|------------------------------------------------------------------|
C|------------------------------------------------------------------|
G|-000--0-0-0-0-0-0--000-0-0-0-0-0--000--0-0-0-0-0-0--000-0-0-0-0-0-|
C|-000--0-0-0-0-0-0--000-0-0-0-0-0--000--0-0-0-0-0-0--000-0-0-0-0-0-|
   ---  - - - - - -  --- - - - - -  ---  - - - - - -  --- - - - - -

Padge
D|------------------------------------------------------------------|
A|-----3-----2-----5-----3-----2h3----------------------------------|
F|--------------------------------------7-----6-----9-----7-----7p6-|
C|---4-----4-----4-----4-----4--------------------------------------|
G|-2-----2-----2-----2-----2----------5-----5-----5-----5-----5-----|
C|----------------------------------5-----5-----5-----5-----5-------|
   - -   - -   - -   - -   - -      - -   - -   - -   - -   - -
Matt
D|------------------------------------------------------------------|
A|------------------------------------------------------------------|
F|------------------------------------------------------------------|
C|-444--4-4-4-4-4-4--444-4-4-4-4-4----------------------------------|
G|-222--2-2-2-2-2-2--222-2-2-2-2-2--555--5-5-5-5-5-5--555-5-5-5-5-5-|
C|----------------------------------555--5-5-5-5-5-5--555-5-5-5-5-5-|
   ---  - - - - - -  --- - - - - -  ---  - - - - - -  --- - - - - -

Padge
D|------------------------------------------------------------------|
A|------------------------------------------------------------------|
F|-----7-----6-----9-----7-----6h7------7-----6-----9-----7-----7p6-|
C|---7-----7-----7-----7-----7--------7-----7-----7-----7-----7-----|
G|-5-----5-----5-----5-----5--------5-----5-----5-----5-----5-------|
C|------------------------------------------------------------------|
   - -   - -   - -   - -   - -      - -   - -   - -   - -   - -
Gtr 3
D|------------------------------------------------------------------|
A|-----7-----5-----8-----7-----5h7------7-----5-----8-----7-----7p5-|
F|------------------------------------------------------------------|
C|---7-----7-----7-----7-----7--------7-----7-----7-----7-----7-----|
G|-5-----5-----5-----5-----5--------5-----5-----5-----5-----5-------|
C|------------------------------------------------------------------|
   - -   - -   - -   - -   - -      - -   - -   - -   - -   - -
Matt & Gtr 4
D|------------------------------------------------------------------|
A|------------------------------------------------------------------|
F|------------------------------------------------------------------|
C|------------------------------------------------------------------|
G|-000--0-0-0-0-0-0--000-0-0-0-0-0--000--0-0-0-0-0-0--000-0-0-0-0-0-|
C|-000--0-0-0-0-0-0--000-0-0-0-0-0--000--0-0-0-0-0-0--000-0-0-0-0-0-|
   ---  - - - - - -  --- - - - - -  ---  - - - - - -  --- - - - - -

Padge
D|------------------------------------------------------------------|
A|-----3-----2-----5-----3-----2h3----------------------------------|
F|--------------------------------------7-----6-----9-----7-----7p6-|
C|---4-----4-----4-----4-----4--------------------------------------|
G|-2-----2-----2-----2-----2----------5-----5-----5-----5-----5-----|
C|----------------------------------5-----5-----5-----5-----5-------|
   - -   - -   - -   - -   - -      - -   - -   - -   - -   - -
Gtr 3
D|-----2-----0-----3-----2-----0h2----------------------------------|
A|--------------------------------------7-----5-----8-----7-----7p5-|
F|------------------------------------------------------------------|
C|---4-----4-----4-----4-----4--------------------------------------|
G|-2-----2-----2-----2-----2----------5-----5-----5-----5-----5-----|
C|----------------------------------5-----5-----5-----5-----5-------|
   - -   - -   - -   - -   - -      - -   - -   - -   - -   - -
Matt & Gtr 4
D|------------------------------------------------------------------|
A|------------------------------------------------------------------|
F|------------------------------------------------------------------|
C|-444--4-4-4-4-4-4--444-4-4-4-4-4----------------------------------|
G|-222--2-2-2-2-2-2--222-2-2-2-2-2--555--5-5-5-5-5-5--555-5-5-5-5-5-|
C|----------------------------------555--5-5-5-5-5-5--555-5-5-5-5-5-|
   ---  - - - - - -  --- - - - - -  ---  - - - - - -  --- - - - - -

Padge
D|------------------------------------------------------------------|
A|------------------------------------------------------------------|
F|-----7-----6-----9-----7-----6h7------7-----6-----9-----7-----7p6-|
C|---7-----7-----7-----7-----7--------7-----7-----7-----7-----7-----|
G|-5-----5-----5-----5-----5--------5-----5-----5-----5-----5-------|
C|------------------------------------------------------------------|
   - -   - -   - -   - -   - -      - -   - -   - -   - -   - -
Gtr 3
D|------------------------------------------------------------------|
A|-----7-----5-----8-----7-----5h7------7-----5-----8-----7-----7p5-|
F|------------------------------------------------------------------|
C|---7-----7-----7-----7-----7--------7-----7-----7-----7-----7-----|
G|-5-----5-----5-----5-----5--------5-----5-----5-----5-----5-------|
C|------------------------------------------------------------------|
   - -   - -   - -   - -   - -      - -   - -   - -   - -   - -
Matt & Gtr 4
D|------------------------------------------------------------------|
A|------------------------------------------------------------------|
F|------------------------------------------------------------------|
C|------------------------------------------------------------------|
G|-000--0-0-0-0-0-0--000-0-0-0-0-0--000--0-0-0-0-0-0--000-0-0-0-0-0-|
C|-000--0-0-0-0-0-0--000-0-0-0-0-0--000--0-0-0-0-0-0--000-0-0-0-0-0-|
   ---  - - - - - -  --- - - - - -  ---  - - - - - -  --- - - - - -

Padge
D|------------------------------------------------------------------|
A|-----3-----2-----5-----3-----2h3----------------------------------|
F|--------------------------------------7-----6-----9-----7-----7p6-|
C|---4-----4-----4-----4-----4--------------------------------------|
G|-2-----2-----2-----2-----2----------5-----5-----5-----5-----5-----|
C|----------------------------------5-----5-----5-----5-----5-------|
   - -   - -   - -   - -   - -      - -   - -   - -   - -   - -
Gtr 3
D|-----2-----0-----3-----2-----0h2----------------------------------|
A|--------------------------------------7-----5-----8-----7-----7p5-|
F|------------------------------------------------------------------|
C|---4-----4-----4-----4-----4--------------------------------------|
G|-2-----2-----2-----2-----2----------5-----5-----5-----5-----5-----|
C|----------------------------------5-----5-----5-----5-----5-------|
   - -   - -   - -   - -   - -      - -   - -   - -   - -   - -
Matt & Gtr 4
D|------------------------------------------------------------------|
A|------------------------------------------------------------------|
F|------------------------------------------------------------------|
C|-444--4-4-4-4-4-4--444-4-4-4-4-4----------------------------------|
G|-222--2-2-2-2-2-2--222-2-2-2-2-2--555--5-5-5-5-5-5--555-5-5-5-5-5-|
C|----------------------------------555--5-5-5-5-5-5--555-5-5-5-5-5-|
   ---  - - - - - -  --- - - - - -  ---  - - - - - -  --- - - - - -
Gtr 5
D|------------------------------------------------------------------|
A|------------------------------------------------------------------|
F|-----------------------------------------------7--7--7--7--7--7---|
C|------------------------------------------------------------------|
G|------------------------------------------------------------------|
C|------------------------------------------------------------------|


Padge
D|------------------------------------------------------------------|
A|------------------------------------------------------------------|
F|-----7-----6-----9-----7-----6h7------7-----6-----9-----7-----7p6-|
C|---7-----7-----7-----7-----7--------7-----7-----7-----7-----7-----|
G|-5-----5-----5-----5-----5--------5-----5-----5-----5-----5-------|
C|------------------------------------------------------------------|
   - -   - -   - -   - -   - -      - -   - -   - -   - -   - -
Gtr 3
D|------------------------------------------------------------------|
A|-----7-----5-----8-----7-----5h7------7-----5-----8-----7-----7p5-|
F|------------------------------------------------------------------|
C|---7-----7-----7-----7-----7--------7-----7-----7-----7-----7-----|
G|-5-----5-----5-----5-----5--------5-----5-----5-----5-----5-------|
C|------------------------------------------------------------------|
   - -   - -   - -   - -   - -      - -   - -   - -   - -   - -
Gtr 5
D|------------------------------------------------------------------|
A|------------------------------------------------------------------|
F|----/7~~~~-6~~~~-9~~~~-7~~~~-6h7~~~~-/7~~~~-6~~~~-9~~~~-7~~~~-7p6-|
C|------------------------------------------------------------------|
G|------------------------------------------------------------------|
C|------------------------------------------------------------------|
Matt & Gtr 4
D|------------------------------------------------------------------|
A|------------------------------------------------------------------|
F|------------------------------------------------------------------|
C|------------------------------------------------------------------|
G|-000--0-0-0-0-0-0--000-0-0-0-0-0--000--0-0-0-0-0-0--000-0-0-0-0-0-|
C|-000--0-0-0-0-0-0--000-0-0-0-0-0--000--0-0-0-0-0-0--000-0-0-0-0-0-|
   ---  - - - - - -  --- - - - - -  ---  - - - - - -  --- - - - - -

Padge
D|------------------------------------------------------------------|
A|-----3-----2-----5-----3-----2h3----------------------------------|
F|--------------------------------------7-----6-----9-----7-----7p6-|
C|---4-----4-----4-----4-----4--------------------------------------|
G|-2-----2-----2-----2-----2----------5-----5-----5-----5-----5-----|
C|----------------------------------5-----5-----5-----5-----5-------|
   - -   - -   - -   - -   - -      - -   - -   - -   - -   - -
Gtr 3
D|-----2-----0-----3-----2-----0h2----------------------------------|
A|--------------------------------------7-----5-----8-----7-----7p5-|
F|------------------------------------------------------------------|
C|---4-----4-----4-----4-----4--------------------------------------|
G|-2-----2-----2-----2-----2----------5-----5-----5-----5-----5-----|
C|----------------------------------5-----5-----5-----5-----5-------|
   - -   - -   - -   - -   - -      - -   - -   - -   - -   - -
Gtr 5
D|------------------------------------------------------------------|
A|------------------------------------------------------------------|
F|----/7~~~~-6~~~~-9~~~~-7~~~~-6h7~~~~-/7~~~~-6~~~~-9~~~~-7~~~~-7p6-|
C|------------------------------------------------------------------|
G|------------------------------------------------------------------|
C|------------------------------------------------------------------|
Matt & Gtr 4
D|------------------------------------------------------------------|
A|------------------------------------------------------------------|
F|------------------------------------------------------------------|
C|-444--4-4-4-4-4-4--444-4-4-4-4-4----------------------------------|
G|-222--2-2-2-2-2-2--222-2-2-2-2-2--555--5-5-5-5-5-5--555-5-5-5-5-5-|
C|----------------------------------555--5-5-5-5-5-5--555-5-5-5-5-5-|
   ---  - - - - - -  --- - - - - -  ---  - - - - - -  --- - - - - -

Padge
D||-------------------------------------------------------------------|
A||o------------------------------------------------------------------|
F||------7-----6-----9-----7-----6h7------7-----6-----9-----7-----7p6-|
C||----7-----7-----7-----7-----7--------7-----7-----7-----7-----7-----|
G||o-5-----5-----5-----5-----5--------5-----5-----5-----5-----5-------|
C||-------------------------------------------------------------------|
     - -   - -   - -   - -   - -      - -   - -   - -   - -   - -
Gtr 3
D||-------------------------------------------------------------------|
A||o-----7-----5-----8-----7-----5h7------7-----5-----8-----7-----7p5-|
F||-------------------------------------------------------------------|
C||----7-----7-----7-----7-----7--------7-----7-----7-----7-----7-----|
G||o-5-----5-----5-----5-----5--------5-----5-----5-----5-----5-------|
C||-------------------------------------------------------------------|
     - -   - -   - -   - -   - -      - -   - -   - -   - -   - -
Gtr 5
D||-------------------------------------------------------------------|
A||o----/7~~~~-5~~~~-8~~~~-7~~~~-5/7~~~~-/7~~~~-5~~~~-8~~~~-7~~~~-7\5-|
F||-----/7~~~~-6~~~~-9~~~~-7~~~~-6/7~~~~-/7~~~~-6~~~~-9~~~~-7~~~~-7\6-|
C||-------------------------------------------------------------------|
G||o------------------------------------------------------------------|
C||-------------------------------------------------------------------|
Matt & Gtr 4
D||-------------------------------------------------------------------|
A||o------------------------------------------------------------------|
F||-------------------------------------------------------------------|
C||-------------------------------------------------------------------|
G||o-000--0-0-0-0-0-0--000-0-0-0-0-0--000--0-0-0-0-0-0--000-0-0-0-0-0-|
C||--000--0-0-0-0-0-0--000-0-0-0-0-0--000--0-0-0-0-0-0--000-0-0-0-0-0-|
     ---  - - - - - -  --- - - - - -  ---  - - - - - -  --- - - - - -
-"...
-"...
-"Forever and Always (Always) (Always)
-"Whoaaa Ohh Oh

Padge
D|-------------------------------------------------------------------||
A|-----3-----2-----5-----3-----2h3----------------------------------o||
F|--------------------------------------7-----6-----9-----7-----7p6--||
C|---4-----4-----4-----4-----4---------------------------------------||
G|-2-----2-----2-----2-----2----------5-----5-----5-----5-----5-----o||
C|----------------------------------5-----5-----5-----5-----5--------||
   - -   - -   - -   - -   - -      - -   - -   - -   - -   - -
Gtr 3
D|-----2-----0-----3-----2-----0h2-----------------------------------||
A|--------------------------------------7-----5-----8-----7-----7p5-o||
F|-------------------------------------------------------------------||
C|---4-----4-----4-----4-----4---------------------------------------||
G|-2-----2-----2-----2-----2----------5-----5-----5-----5-----5-----o||
C|----------------------------------5-----5-----5-----5-----5--------||
   - -   - -   - -   - -   - -      - -   - -   - -   - -   - -
Gtr 5
D|-------------------------------------------------------------------||
A|----/7~~~~-5~~~~-8~~~~-7~~~~-5/7~~~~-/7~~~~-5~~~~-8~~~~-7~~~~-7\5-o||
F|----/7~~~~-6~~~~-9~~~~-7~~~~-6/7~~~~-/7~~~~-6~~~~-9~~~~-7~~~~-7\6--||
C|-------------------------------------------------------------------||
G|------------------------------------------------------------------o||
C|-------------------------------------------------------------------||
Matt & Gtr 4
D|-------------------------------------------------------------------||
A|------------------------------------------------------------------o||
F|-------------------------------------------------------------------||
C|-444--4-4-4-4-4-4--444-4-4-4-4-4-----------------------------------||
G|-222--2-2-2-2-2-2--222-2-2-2-2-2--555--5-5-5-5-5-5--555-5-5-5-5-5-o||
C|----------------------------------555--5-5-5-5-5-5--555-5-5-5-5-5--||x6
   ---  - - - - - -  --- - - - - -  ---  - - - - - -  --- - - - - -

Padge
D||-------------------------------------------------------------------|
A||o------------------------------------------------------------------|
F||------7-----6-----9-----7-----6h7------7-----6-----9-----7-----7p6-|
C||----7-----7-----7-----7-----7--------7-----7-----7-----7-----7-----|
G||o-5-----5-----5-----5-----5--------5-----5-----5-----5-----5-------|
C||-------------------------------------------------------------------|
     - -   - -   - -   - -   - -      - -   - -   - -   - -   - -
Gtr 3
D||-------------------------------------------------------------------|
A||o-----7-----5-----8-----7-----5h7------7-----5-----8-----7-----7p5-|
F||-------------------------------------------------------------------|
C||----7-----7-----7-----7-----7--------7-----7-----7-----7-----7-----|
G||o-5-----5-----5-----5-----5--------5-----5-----5-----5-----5-------|
C||-------------------------------------------------------------------|
     - -   - -   - -   - -   - -      - -   - -   - -   - -   - -
Padge
D|-------------------------------------------------------------------||
A|-----3-----2-----5-----3-----2h3----------------------------------o||
F|--------------------------------------7-----6-----9-----7-----7p6--||
C|---4-----4-----4-----4-----4---------------------------------------||
G|-2-----2-----2-----2-----2----------5-----5-----5-----5-----5-----o||
C|----------------------------------5-----5-----5-----5-----5--------||
   - -   - -   - -   - -   - -      - -   - -   - -   - -   - -
Gtr 3
D|-----2-----0-----3-----2-----0h2-----------------------------------||
A|--------------------------------------7-----5-----8-----7-----7p5-o||
F|-------------------------------------------------------------------||
C|---4-----4-----4-----4-----4---------------------------------------||
G|-2-----2-----2-----2-----2----------5-----5-----5-----5-----5-----o||
C|----------------------------------5-----5-----5-----5-----5--------||
   - -   - -   - -   - -   - -      - -   - -   - -   - -   - -

Padge
D||-------------------------------------------------------------------|
A||o------------------------------------------------------------------|
F||------7-----6-----9-----7-----6h7------7-----6-----9-----7-----7p6-|
C||----7-----7-----7-----7-----7--------7-----7-----7-----7-----7-----|
G||o-5-----5-----5-----5-----5--------5-----5-----5-----5-----5-------|
C||-------------------------------------------------------------------|
     - -   - -   - -   - -   - -      - -   - -   - -   - -   - -
D|-------------------------------------------------------------------||
A|-----3-----2-----5-----3-----2h3----------------------------------o||
F|--------------------------------------7-----6-----9-----7-----7p6--||
C|---4-----4-----4-----4-----4---------------------------------------||
G|-2-----2-----2-----2-----2----------5-----5-----5-----5-----5-----o||
C|----------------------------------5-----5-----5-----5-----5--------||
   - -   - -   - -   - -   - -      - -   - -   - -   - -   - -
Tap to rate this tab
# A B C D E F G H I J K L M N O P Q R S T U V W X Y Z