Song name
# A B C D E F G H I J K L M N O P Q R S T U V W X Y Z

Bullet For My Valentine - One Good Reason Why tab

Bullet For my Valentine - "One Good Reason Why"
From "Scream Aim Fire - Deluxe Edition"
Tune Guitars down 1 step to DGCFAD
tabbed by jjhand


Intro
D|----------------|
A|----------------|
F|----------------|
C|----------------|
G|-3-2---2-3-5-2--|
D|-----3----------|


Intro/Verse Riff 1, play 2x:

  Guitar 1 - plam mute the notes with stars below them
D|---------------------------------|------------------------------|
A|---------------------------------|------------------------------|
F|---------------------------------|-----------------5--5---------|
C|-------7---5-----8---7---5---7~~-|-------7---5-----5--5--5--5-5-|
G|-0---0---0---0-0---0---0---0-----|-0---0---0---0-0-3--3--5--5-5-|
D|---------------------------------|-----------------------3--3-3-|
 |     *   *   * *   *   *   *           *   *   * *          * *   
 |Guitar 2 intro part
D|---------------------------------|------------------------------|
A|---------------------------------|------------------------------|
F|---------------------------------|-----------------5--5---------|
C|-7-------------------------------|-(7)-------------5--5--5--5-5-|
G|-7-------------------------------|-(7)-------------3--3--5--5-5-|
D|-5-------------------------------|-(5)-------------------3--3-3-|


Guitar 1 Continues Playing Riff 1 while Guitar 2 harmonizes
  Guitar 2 Verse Riff 1, play 2x
D|------------------------------------|-------------------------------|
A|------------------------------------|-------------------------------|
F|------------------------------------|------------------5--5---------|
C|-------10---9-----12---10---9---10~-|-------10---9-----5--5--5--5-5-|
G|-0---0----0---0-0----0----0---0-----|-0---0----0---0-0-3--3--5--5-5-|
D|------------------------------------|------------------------3--3-3-|





Preverse Riff, Guitar 2:
play 2x
D|----------------------------------------------|
A|----------------------------------------------|
F|----------------------------------------------|
C|----------------------------------------------|
G|-7----7-8-8-7--8--7--5--7----7-8-8-7--8--7--5-|
D|-5----5-6-6-5--6--5--3--5----5-6-6-5--6--5--3-|
          * * *  *  *  *  *      * * *  *  *  * 

D|----------------------------------------|
A|----------------------------------------|
F|----------------------------------------|
C|------------------------3---3---5---5---|
G|-7----7-8-8-7--8--7--5--3---3---5---5---|
D|-5----5-6-6-5--6--5--3--1---1---3---3---|
          * * *  *  *  *  

On second Preverse Riff, Guitar 1 joins in:
D|------------------------|--------------------------------|
A|------------------------|--------------------------------|
F|------------------------|--------------------------------|
C|-12---------------------|-(12)-----------5---5-----------|
G|-12---------------------|-(12)-----------3---3---5---7\5-|
D|------------------------|------------------------3---5\3-|





Verse - Guitar 1 plays Riff 1 with Guitar 2 Harmonizing part 2x
        
Then they play 

RIFF 2:
  Guitar 1
D|---------------------------------|------------------------------|
A|---------------------------------|------------------------------|
F|---------------------------------|-----------------5--5---------|
C|---------------------------------|-7---------------5--5--5--5-5-|
G|---------------------------------|-7---------------3--3--5--5-5-|
D|---------------------------------|-5---------------------3--3-3-|
 |
 |Guitar 2
D|---------------------------------|------------------------------|
A|---------------------------------|------------------------------|
F|---------------------------------|-----------------5--5---------|
C|-------7---5-----8---7---5---7~~-|-------7---5-----5--5--5--5-5-|
G|-0---0---0---0-0---0---0---0-----|-0---0---0---0-0-3--3--5--5-5-|
D|---------------------------------|-----------------------3--3-3-|
Vocals:  "Send shivers down my spine ..."


  Guitar 1
D|-------------------------------|------------------------------|
A|-------------------------------|------------------------------|
F|-------------------------------|-2---------------5--5---------|
C|-7-----------------------------|-2---------------5--5--5------|
G|-7-----------------------------|-0---------------3--3--5------|
D|-5-----------------------------|-----------------------3--5-3-|
 |
 |Guitar 2
D|-------------------------------|------------------------------|
A|-------------------------------|------------------------------|
F|-------------------------------|-----------------5--5---------|
C|-7---7p0-5p0-0-8p0-7p0-5p0-7~~-|------7p0-5p0-0--5--5--5------|
G|-7-----------------------------|-0---------------3--3--5------|
D|-5-----------------------------|-----------------------3--5-3-|
     "Lets do it one more time ..."




Chorus - play 2x
   Guitar 1 (palm mutes throughout)
D||-------------------------------|------------------------------|
A||-------------------------------|------------------------------|
F||-------------------------------|------------------------------|
C||-------------------------------|------------------------------|
G||-3-3-3-3-3-3-3-3-3-3-3---3/5---|-3-3-3-3-3-3-3-3-3-3-3---3/5--|
D||-1-1-1-1-1-1-1-1-1-1-1---1/3---|-1-1-1-1-1-1-1-1-1-1-1---1/3--|
 |
 | Guitar 2
D||-------------------------------|------------------------------|
A||-------------------------------|------------------------------|
F||----------------------5--5\4---|-----------------5\4----------|
C||------5--5/7-------------------|-----5--5/7--------------5/7--|
G||-3---------------3-------------|-3-----------3-3-----3-3------|
D||-1---------------1-------------|-1-----------1-1-----1-1------|


  Guitar 1 - plam mute the notes with stars, both parts 
D|------------------------------------|-------------------------------|
A|------------------------------------|-------------------------------|
F|------------------------------------|------------------5--5---------|
C|--------7---5-----8----7----5---7~~-|-------7----5-----5--5--5------|
G|-0---0----0---0-0----0---0----0-----|-0---0----0---0-0-3--3--5------|
D|------------------------------------|------------------------3--5-3-|
 |     *    *   * *    *   *    *           *    *   * *          * *   
 |Guitar 2
D|------------------------------------|-------------------------------|
A|------------------------------------|-------------------------------|
F|------------------------------------|------------------5--5---------|
C|-------10---9-----12---10---9---10~-|-------10---9-----5--5--5------|
G|-0---0----0---0-0----0----0---0-----|-0---0----0---0-0-3--3--5------|
D|------------------------------------|------------------------3--5-3-|


  both guitars together
D|---------------|-----------------|---------------|-----------------|
A|---------------|-----------------|---------------|-----------------|
F|---------------|--------5--------|---------------|-----------------|
C|-7-------------|--------5--------|-3-------------|-5---------------|
G|-7-------------|--------3--------|-3-------------|-5---------------|
D|-5-------------|-----------------|-1-------------|-3---------------|
  "Bodies Shaking ..."


  Guitar 1 - plam mute the notes with stars, both parts
D|------------------------------------|-------------------------------------|
A|------------------------------------|-------------------------------------|
F|------------------------------------|-------------------------------------|
C|-----10---9--------12---10---9-10-9-|------10---9--------12---10---9-10-9-|
G|-0------0---0-10-0----0----0--------|-12------0---0-10-0----0----0--------|
D|------------------------------------|-------------------------------------|
 |        *   *    *    *    *  * * *           *   *    *    *    *  * * *   
 |Guitar 2 
D|------------------------------------|-------------------------------------|
A|------------------------------------|-------------------------------------|
F|-----9----7--------10----9---7-9-7--|------9----7--------10----9---7-9-7--|
C|--------------9---------------------|-10------------9---------------------|
G|-0------0---0----0----0----0--------|---------0---0----0----0----0--------|
D|------------------------------------|-------------------------------------|


  both Guitars - Chorus ending
D|----------------|----------------||
A|----------------|----------------||
F|----------------|----------------||
C|-3--------------|-5--------------||
G|-3--------------|-5--------------||
D|-1--------------|-3--------------||
"Can you please keep screaming ..."






Play Preverse Riff

Play Verse Riffs again 

Play Chorus again




Shred Break- Starred notes are palm mutes again

  Guitar 1
D|----------------------------------|----------------------------------|
A|----------------------------------|----------------------------------|
F|--------------------------9-------|----------------------------------|
C|-----------------10---9-------9---|-10~-------------10-9-------------|
G|-0-0-0-0-0---0-0----0---0---0---0-|-----0-0-0---0-0------12-10-12-10-|
D|----------------------------------|----------------------------------|
 | * * * *     * *    *   *   *   *       * *     * *   
 |Guitar 2
D|----------------------------------|----------------------------------|
A|----------------------------------|----------------------------------|
F|----------------------------------|----------------------------------|
C|-7--------------------------------|-3--------------------------------|
G|-7--------------------------------|-3--------------------------------|
D|-5--------------------------------|-1--------------------------------|


  Guitar 1
D|----------------------------------|-------------------------------------|
A|----------------------------------|-----------------13-12---------------|
F|--------------------------9-------|-----------------------14-12---14-12-|
C|-----------------10---9-------9---|-10~---------------------------------|
G|-12~-0-0-0---0-0----0---0---0---0-|-----0-0-0---0-0---------------------|
D|----------------------------------|-------------------------------------|
 |     * *     * *    *   *   *   *       * *     * *
 |Guitar 2
D|----------------------------------|----------------------------------|
A|----------------------------------|----------------------------------|
F|----------------------------------|----------------------------------|
C|-5--------------------------------|-2--------------------------------|
G|-5--------------------------------|-2--------------------------------|
D|-3--------------------------------|-0--------------------------------|


  Guitar 1
D|----------------------------------|-----------------------------------|
A|----------------------------------|-----------------------------------|
F|-14~----------------------9-------|-----------------------------------|
C|-----------------10---9-------9---|-10~-------------10-9--------------|
G|-----0-0-0---0-0----0---0---0---0-|-----0-0-0---0-0------12-10--12-10-|
D|----------------------------------|-----------------------------------|
 |     * *     * *    *   *   *   *       * *     * *   
 |Guitar 2
D|----------------------------------|-----------------------------------|
A|----------------------------------|-----------------------------------|
F|----------------------------------|-----------------------------------|
C|-7--------------------------------|-3---------------------------------|
G|-7--------------------------------|-3---------------------------------|
D|-5--------------------------------|-1---------------------------------|


  Guitar 1
D|----------------------------------|------------------------------------|
A|----------------------------------|-----------------13-12--------------|
F|--------------------------9-------|-----------------------14-12--14-12-|
C|-----------------10---9-------9---|-10~--------------------------------|
G|-12~-0-0-0---0-0----0---0---0---0-|-----0-0-0---0-0--------------------|
D|----------------------------------|------------------------------------|
 |     * *     * *    *   *   *   *       * *     * *
 |Guitar 2
D|----------------------------------|-----------------12-10--------------|
A|----------------------------------|-----------------------13-12--13-12-|
F|----------------------------------|------------------------------------|
C|-5--------------------------------|-2----------------------------------|
G|-5--------------------------------|-2----------------------------------|
D|-3--------------------------------|-0----------------------------------|



Shred Part 2 (Drums pick up speed, vocals in background) play this 2x
  Guitar 1
D|----------------------------------|----------------------------------|
A|----------------------------------|----------------------------------|
F|-14~----------------------9-------|----------------------------------|
C|-----------------10---9-------9---|-10~-------------10-9-------------|
G|-----0-0-0---0-0----0---0---0---0-|-----0-0-0---0-0------12-10-12-10-|
D|----------------------------------|----------------------------------|
 |     * *     * *    *   *   *   *       * *     * *   
 |Guitar 2
D|----------------------------------|----------------------------------|
A|-13~----------------------8-------|----------------------------------|
F|-----------------9----7-------7---|-9~--------------9--7-------------|
C|----------------------------------|----------------------10-9--10-9--|
G|-----0-0-0---0-0----0---0---0---0-|-----0-0-0---0-0------------------|
D|----------------------------------|----------------------------------|

  Guitar 1
D|----------------------------------|------------------------------------||
A|----------------------------------|-----------------13-12--------------||
F|--------------------------9-------|-----------------------14-12--14-12-|| -14-
C|-----------------10---9-------9---|-10~--------------------------------||
G|-12~-0-0-0---0-0----0---0---0---0-|-----0-0-0---0-0--------------------||
D|----------------------------------|------------------------------------||
 |     * *     * *    *   *   *   *       * *     * *
 |Guitar 2
D|----------------------------------|-----------------12-10--------------||
A|--------------------------8-------|-----------------------13-12--13-12-|| -13-
F|-10~-------------9----7-------7---|-9~---------------------------------||
C|----------------------------------|------------------------------------||
G|-----0-0-0---0-0----0---0---0---0-|-----0-0-0---0-0--------------------||
D|----------------------------------|------------------------------------||

the note listed at the end of the line is held when the Chorus starts playing again




After Shred Part 2, Play first four bars of Chorus, then you hear:

Both Guitars
D|-------------------|-------------------|
A|-------------------|-----------x\------| pick scrape
F|-------------------|-----------x\------|
C|-------------------|-----------x\------|
G|--rest-------------|-------------------|
D|-------------------|-------------------|
  "Bodies Shaking"    "Bodies Shaking"


D|-------------------------------|---------------|
A|-------------------------------|---------------|
F|-------------------------------|---------------|
C|-3-----------3---3-----------3-|-5-------------|
G|-3---3-3-3---3---3---3-3-3---3-|-5-------------|
D|-1---1-1-1---1---1---1-1-1---1-|-3-------------|
  "Darkness Fading ..."

parts split again:
  Guitar 1 - plam mute the notes with stars, both parts
D|------------------------------------|-------------------------------------|
A|------------------------------------|-------------------------------------|
F|------------------------------------|-------------------------------------|
C|-----10---9--------12---10---9-10-9-|------10---9--------12---10---9-10-9-|
G|-0------0---0-10-0----0----0--------|-12------0---0-10-0----0----0--------|
D|------------------------------------|-------------------------------------|
 |        *   *    *    *    *  * * *           *   *    *    *    *  * * *   
 |Guitar 2 
D|------------------------------------|-------------------------------------|
A|------------------------------------|-------------------------------------|
F|-----9----7--------10----9---7-9-7--|------9----7--------10----9---7-9-7--|
C|--------------9---------------------|-10------------9---------------------|
G|-0------0---0----0----0----0--------|---------0---0----0----0----0--------|
D|------------------------------------|-------------------------------------|


  both Guitars - Chorus ending
D|----------------|----------------||
A|----------------|----------------||
F|----------------|----------------||
C|-3--------------|-5--------------||
G|-3--------------|-5--------------||
D|-1--------------|-3--------------||
"Can you please keep screaming ..."


Ending:

  Both Guitars - palm mute the single G notes (5th Fret)
D|---------------------------------------------|
A|---------------------------------------------|
F|---------------------------------------------|
C|-7--------7--------7--7--------7--------5h7--|
G|-7--------7--------7--7--------7--------5h7--|
D|-5--5-5-5-5--5-5-5-5--5--5-5-5-5--5-5-5-5----|

D|-------------------------------------------|
A|-------------------------------------------|
F|-------------------------------------------|
C|-7--------7--------7-----7-----7-----7-----|
G|-7--------7--------7-----7-----7-----7-----|
D|-5--5-5-5-5--5-5-5-5-5-5-5-5-5-5-5-5-5-5-5-|

D|---------------------------------------------|
A|---------------------------------------------|
F|---------------------------------------------|
C|-7--------7--------7--7--------7--------5h7--|
G|-7--------7--------7--7--------7--------5h7--|
D|-5--5-5-5-5--5-5-5-5--5--5-5-5-5--5-5-5-5----|

D|-------------------------------|---------------------------------|------|
A|-------------------------------|---------------------------------|------|
F|-------------------------------|-----4h5---4h5---4h5---4h5---4h5-|------|
C|-7------3------5------2--------|-----5h7---5h7---5h7---5h7---5h7-|-7----|
G|-7------3------5------2--------|-0-0-----0-----0-----0-----0-----|-7----|
D|-5------1------3------0--------|---------------------------------|-5----|

Guitar 2 plays the top hammer-on notes above.



|Key:
===================
| /  slide up
| \  slide down
| h  hammer-on
| p  pull-off
| ~  vibrato
| x  Mute note (or rake)
| b  bend (bends with vibrato bar indicated)
| r  release bend
| *  palm muted notes
| () hold note
Tap to rate this tab
# A B C D E F G H I J K L M N O P Q R S T U V W X Y Z