Song name
# A B C D E F G H I J K L M N O P Q R S T U V W X Y Z

Bullet For My Valentine - One Good Reason Why tab

Tabbed by: BurnSami

Arist: Bullet For My Valentine
Song: One Good Reason Why
Tuning: DGCFAD

Not perfect but I think it's ok.
You can e-mail me corrections/tips etc.. sammyn@suomi24.fi
Enjoy!


Guitar 1

     PM  PM PM PM PM  PM PM  
D||-------------------------||
A||-------------------------||
F||-------------------------||
C||-------------------------||
G||-------------------------||
C||--10--9--7--7--10--9--7--||

Intro: (00:01-00:10)

        PM    PM    PM PM    PM      PM    PM          PM    PM    PM PM
D||----------------------------------------------------------------------||
A||----------------------------------------------------------------------||
F||----------------------------------------------------------------------||
C||--------7-----5--------8-------7-----5-----7b----------7-----5--------||
G||--0--0-----0-----0--0-----0-------0-----0--------0--0-----0-----0--0--||
C||----------------------------------------------------------------------||
                        
                         PM PM
D||-------------------------------||						
A||-------------------------------||						
F||-----5--5----------------------||
C||--x--5--5---x---5--5--------7--||
G||--x--3--3---x---5--5--------7--||
C||--x---------x---5--5--5--5--7--||

        PM    PM    PM PM    PM      PM    PM          PM    PM    PM PM
D||----------------------------------------------------------------------||
A||----------------------------------------------------------------------||
F||----------------------------------------------------------------------||
C||--------7-----5--------8-------7-----5-----7b----------7-----5--------||
G||--0--0-----0-----0--0-----0-------0-----0--------0--0-----0-----0--0--||
C||----------------------------------------------------------------------||

	                 PM PM
D||-------------------------------||						
A||-------------------------------||						
F||-----5--5----------------------||
C||--x--5--5---x---5--5--------7--||
G||--x--3--3---x---5--5--------7--||
C||--x---------x---5--5--5--5--7--||

Intro 2: (00:11-00:20)

     PM    PM    PM PM    PM      PM    PM          PM    PM    PM PM        
D||-------------------------------------------------------------------||
A||-------------------------------------------------------------------||
F||-------------------------------------------------------------------||
C||-----7-----5--------8-------7-----5-----7b----------7-----5--------||
G||--0-----0-----0--0-----0-------0-----0--------0--0-----0-----0--0--||
C||-------------------------------------------------------------------||
                         PM PM                                           \
D||-------------------------------||                                     2x
A||-------------------------------||                                     /
F||-----5--5----------------------||
C||--x--5--5---x---5--5--------7--||
G||--x--3--3---x---5--5--------7--||
C||--x---------x---5--5--5--5--7--|| 

D||---------------------------||
A||---------------------------||
F||--------------------2br~~--||
C||--7\----------------2br~~--||
G||--7\-----------------------||
C||--7\-----------------------||


D||-------------------||
A||-------------------||
F||--5--5-------------||
c||--5--5--5--7p5--7--||
G||--3--3--5--7p5--7--||
C||--------5--7p5--7--||


Verse: (00:30-00:48)


        PM    PM    PM PM    PM      PM    PM          PM    PM    PM PM
D||----------------------------------------------------------------------||
A||----------------------------------------------------------------------||
F||----------------------------------------------------------------------||
C||--------7-----5--------8-------7-----5-----7b----------7-----5--------||
G||--0--0-----0-----0--0-----0-------0-----0--------0--0-----0-----0--0--||
C||----------------------------------------------------------------------||

                         PM PM
D||--------------------------------||						
A||--------------------------------||						
F||-----5--5-----------------------||
C||--x--5--5---x---5--5--------7\--||
G||--x--3--3---x---5--5--------7\--||
C||--x---------x---5--5--5--5--7\--||

     PM
C||--------||
A||--------||
F||--------||
C||-----7--||
G||--7--7--||
C||--7--7--||

                         PM PM
D||--------------------------------------||						
A||--------------------------------------||						
F||-----5--5-----------------------------||
C||--x--5--5---x---5--5--------7------7--||
G||--x--3--3---x---5--5--------7------7--||
C||--x---------x---5--5--5--5--7------7--||

                         PM PM
D||-------------------------------||					     
A||-------------------------------||
F||-----5--5----------------------||
C||--x--5--5---x---5--5--------3--||
G||--x--3--3---x---5--5--------3--||
C||--x---------x---5--5--5--5--3--|| 

Chorus: (00:49-01:26)

     PM PM PM PM    PM PM PM   PM PM
D||--------------------------------------------||
A||--------------------------------------------||
F||--------------------------------------------||
C||--------------------------------------------||
G||--------------3-----------3--------3h5--3---||
C||--3--3--3--3--3--3--3--3--3--3--3--3h5--3---||

     PM PM PM PM    PM PM PM   PM PM              
D||----------------------------------------||
A||----------------------------------------||
F||----------------------------------------||
C||----------------------------------------||
G||--------------3-----------3--------3h5--||
C||--3--3--3--3--3--3--3--3--3--3--3--3h5--||
    						
        PM    PM    PM PM    PM      PM    PM          PM    PM    PM PM
D||----------------------------------------------------------------------||
A||----------------------------------------------------------------------||
F||----------------------------------------------------------------------||
C||--------7-----5--------8-------7-----5-----7b----------7-----5--------||
G||--0--0-----0-----0--0-----0-------0-----0--------0--0-----0-----0--0--||
C||----------------------------------------------------------------------||

             PM         PM PM        
D||---------------------------||-----||      ||-------||
A||---------------------------||-----||first ||-------|| second
F||---5---5-------------------||-----|| end  ||--2~~--|| end
C||---5---5--5---5---5--------||--3--||      ||--2~~--||       Whole thing
G||---3---3--3---5---5--------||--3--||      ||--0~~--||            2x
C||--------------5---5--5--5--||--3--||      ||-------||

     PM      PM      PM
D||-------------------------------------------||
A||-------------------------------------------||
F||-----5~~-----------------------------------||
C||--2--5~~--5--3~~-----5~~-------------------||
G||--0--3~~--3--3~~--3--5~~-------------------||
C||-------------3~~--3--5~~--//pick-scrape\\--||

        PM    PM    PM    PM          PM PM PM PM
D||---------------------------------------------------||
A||---------------------------------------------------||
F||--------5-----4-----------7-----5-----4--5--4--2b--||
C||--------------------5------------------------------||
G||--0--0-----0-----0-----0-----0-----0---------------||
C||---------------------------------------------------||

     PM    PM    PM    PM          PM PM PM PM
D||---------------------------------------------------||
A||---------------------------------------------------||
F||-----5-----4-----------7-----5-----4--5--4---------||
C||-----------------5--------------------------3~--5~-||
G||--0-----0-----0-----0-----0-----0-----------3~--5~-||
C||--------------------------------------------3~--5~-||

Intro2 (01:27-01:32)
Verse (01:33-01:51)
Chorus (01:52-02:30)

Bridge: (02:31-03:09)

        PM PM PM    PM PM     PM    PM    PM     PM
D||----------------------------------------------------||
A||----------------------------------------------------||
F||------------------------------------9---------------||
C||-----------------------10-----9-----------10-----9b-||
G||--0--0--0--0--0--0--0------0-----0-----0------0-----||
C||----------------------------------------------------||

     PM PM    PM PM
D||-------------------------------------------||
A||-------------------------------------------|| 
F||-------------------------------------------||
C||--------------------9---10--9---5--7--5--7-||
G||--0--0--0--0--0--0-------------------------||
C||-------------------------------------------||
						
        PM PM PM    PM PM     PM    PM    PM     PM
D||----------------------------------------------------||
A||----------------------------------------------------||
F||------------------------------------9---------------||
C||-----------------------10-----9-----------10-----9b-||
G||--0--0--0--0--0--0--0------0-----0-----0------0-----||
C||----------------------------------------------------||

     PM PM    PM PM
D||--------------------------------------------------||
A||--------------------------------------------------||
F||--------------------17---15--17---12--14--12--14--||
C||--------------------------------------------------||
G||--0--0--0--0--0--0--------------------------------||
C||--------------------------------------------------||

Chorus (03:10-03:46)

     PM PM PM PM    PM PM PM   PM PM
D||--------------------------------------------||
A||--------------------------------------------||
F||--------------------------------------------||
C||--------------------------------------------||
G||--------------3-----------3--------3h5--3---||
C||--3--3--3--3--3--3--3--3--3--3--3--3h5--3---||

     PM PM PM PM    PM PM PM   PM PM              
D||----------------------------------------||
A||----------------------------------------||
F||----------------------------------------||
C||----------------------------------------||
G||--------------3-----------3--------3h5--||
C||--3--3--3--3--3--3--3--3--3--3--3--3h5--||
    						
        PM    PM    PM PM    PM      PM    PM          PM    PM    PM PM
D||----------------------------------------------------------------------||
A||----------------------------------------------------------------------||
F||----------------------------------------------------------------------||
C||--------7-----5--------8-------7-----5-----7b----------7-----5--------||
G||--0--0-----0-----0--0-----0-------0-----0--------0--0-----0-----0--0--||
C||----------------------------------------------------------------------||

             PM         PM PM        
D||---------------------------||-----||      ||-------second-end-------||
A||---------------------------||-----||first ||------------------------||
F||---5---5-------------------||-----|| end  ||--2---------------------||
C||---5---5--5---5---5--------||--3--||      ||--2---------------------||
G||---3---3--3---5---5--------||--3--||      ||--0---------------------||
C||--------------5---5--5--5--||--3--||      ||-----//pick-scrape\\----||

D||-------------------------------------------------||
A||-------------------------------------------------||
F||-------------------------------------------------||
C||--3--------------3-----3--------------3-----5~~--||
G||--3--3--3--3--3--3--3--3--3--3--3--3--3--3--5~~--||
C||--3--3--3--3--3--3--3--3--3--3--3--3--3--3--5~~--||

        PM    PM    PM    PM          PM PM PM PM
D||---------------------------------------------------||
A||---------------------------------------------------||
F||--------5-----4-----------7-----5-----4--5--4--2b--||
C||--------------------5------------------------------||
G||--0--0-----0-----0-----0-----0-----0---------------||
C||---------------------------------------------------||

     PM    PM    PM    PM          PM PM PM PM
D||---------------------------------------------------||
A||---------------------------------------------------||
F||-----5-----4-----------7-----5-----4--5--4---------||
C||-----------------5--------------------------3~--5~-||
G||--0-----0-----0-----0-----0-----0-----------3~--5~-||
C||--------------------------------------------3~--5~-||

Outro: (03:47-04:04
(not the exact strumming pattern)
        PMPMPMPMPM    PMPMPMPM    PMPMPM    PMPMPM   PMPMPM 
D||---------------------------------------------------------------||
A||---------------------------------------------------------------||
F||---------------------------------------------------------------||
C||--7-------------7-----------7---------7---------7---------5h7--||
G||--7-------------7-----------7---------7---------7---------5h7--||
C||--7--7-7-7-7-7--7--7-7-7-7--7--7-7-7--7--7-7-7--7--7-7-7--5h7--||

        PMPMPMPMPM    PMPMPMPM    PMPMPM    PMPMPM   PM  PM   PM
D||---------------------------------------------------------------||
A||---------------------------------------------------------------||
F||---------------------------------------------------------------||
C||--7-------------7-----------7---------7---------7---7---7---7--||
G||--7-------------7-----------7---------7---------7---7---7---7--||
C||--7--7-7-7-7-7--7--7-7-7-7--7--7-7-7--7--7-7-7--7-7-7-7-7-7-7--||

                   PM      PM      PM      PM      PM
D||--------------------------------------------------------||
A||--------------------------------------------------------||
F||--------------------------------------------------------||
C||--7--3--5--2~~-----5h7-----5h7-----5h7-----5h7-----5h7--||
G||--7--3--5--2~~--0-------0-------0-------0-------0-------||
C||--7--3--5--2~~------------------------------------------||

D||-------||
A||-------||
F||-------||
C||--2~~--||
G||--0~~--||
C||-------||


Guitar 2

     PM  PM PM PM PM  PM PM  
D||-------------------------||
A||-------------------------||
F||-------------------------||
C||-------------------------||
G||-------------------------||
C||--10--9--7--7--10--9--7--||

Intro: (00:01-00:10)

D||-------||
A||-------||
F||-------||
C||--7~~--||
G||--7~~--||
C||--7~~--||

                         PM PM
D||-------------------------------||						
A||-------------------------------||						
F||-----5--5----------------------||
C||--x--5--5---x---5--5--------7--||
G||--x--3--3---x---5--5--------7--||
C||--x---------x---5--5--5--5--7--||

D||-------||
A||-------||
F||-------||
C||--7~~--||
G||--7~~--||
C||--7~~--||

                         PM PM        
D||-------------------------------||
A||-------------------------------||
F||-----5--5----------------------||
C||--x--5--5---x---5--5--------7--||
G||--x--3--3---x---5--5--------7--||
C||--x---------x---5--5--5--5--7--||

Intro 2: (00:11-00:20)

     PM    PM    PM PM    PM      PM    PM          PM    PM    PM PM        
D||-------------------------------------------------------------------||
A||-------------------------------------------------------------------||
F||-----5-----4--------7-------5-----4-----5b----------5-----4--------||
C||-------------------------------------------------------------------||
G||--0-----0-----0--0-----0-------0-----0--------0--0-----0-----0--0--||
C||-------------------------------------------------------------------||
             							         \
                         PM PM         				          2x
D||-------------------------------||				         /
A||-------------------------------||
F||-----5--5----------------------||
C||--x--5--5---x---5--5--------7--||
G||--x--3--3---x---5--5--------7--||
C||--x---------x---5--5--5--5--7--|| 

     PMPMPM PM PM PM PM PM         
D||---------------------------||
A||---------------------------||
F||---------------------------||
C||------------------------7--|| 3x
G||------------------------7--||
C||--7-7-7--7--8--7--5--5--7--||

D||-----------------||
A||-----------------||
F||-----------------||
c||--3--3--5--5--7--||
G||--3--3--5--5--7--||
C||--3--3--5--5--7--||

     PMPMPM PM PM PM PM PM         
D||---------------------------||
A||---------------------------||
F||---------------------------||
C||------------------------7--|| 3x
G||------------------------7--||
C||--7-7-7--7--8--7--5--5--7--||

D||-----------------||
A||-----------------||
F||-----------------||
c||--3--3--5--5-----||
G||--3--3--5--5--0--||
C||--3--3--5--5-----||

Verse: (00:30-00:48)

     PM    PM    PM PM    PM      PM    PM          PM    PM    PM PM        
D||-------------------------------------------------------------------||
A||-------------------------------------------------------------------||
F||-----5-----4--------7-------5-----4-----5b----------5-----4--------||
C||-------------------------------------------------------------------||
G||--0-----0-----0--0-----0-------0-----0--------0--0-----0-----0--0--||
C||-------------------------------------------------------------------||
             							         \
                         PM PM         			          	  2x
D||-------------------------------||					 /
A||-------------------------------||
F||-----5--5----------------------||
C||--x--5--5---x---5--5--------7--||
G||--x--3--3---x---5--5--------7--||
C||--x---------x---5--5--5--5--7--|| 

     PM    PM    PM PM    PM      PM    PM          PM    PM    PM PM        
D||-------------------------------------------------------------------||
A||-------------------------------------------------------------------||
F||-------------------------------------------------------------------||
C||-----7-----5--------8-------7-----5-----7b----------7-----5--------||
G||--0-----0-----0--0-----0-------0-----0--------0--0-----0-----0--0--||
C||-------------------------------------------------------------------||

                        PM PM         					       
D||-------------------------------||					     
A||-------------------------------||
F||-----5--5----------------------||
C||--x--5--5---x---5--5--------7--||
G||--x--3--3---x---5--5--------7--||
C||--x---------x---5--5--5--5--7--|| 

D||-----------------------------------------------||
A||-----------------------------------------------||
F||-----------------------------------------------||
C||--7p0--5p0--0--8p0--7p0--5p0--7b-----7p0--5p0--||
G||----------------------------------5------------||
C||----------------------------------5------------||

                        PM PM         					       
D||-------------------------------||					     
A||-------------------------------||
F||-----5--5----------------------||
C||--x--5--5---x---5--5--------3--||
G||--x--3--3---x---5--5--------3--||
C||--x---------x---5--5--5--5--3--|| 

Chorus: (00:49-01:26)

     PM        PM      PM       PM      PM       PM      PM PM      PM PM
D||----------------------------------------------------------------------------||
A||----------------------------------------------------------------------------||
F||---------4-----4h5--------7-----7p5--------4-----4h5--------7p5--------4h5--||
C||----------------------------------------------------------------------------||
G||-----3-----------------3----------------3-----------------------------------||
C||--3--3------3-------3--3-----3-------3--3-----3-------3--3-------3--3-------||

       PM    PM    PM PM     PM      PM    PM        PM    PM    PM PM        
D||--------------------------------------------------------------------||
A||--------------------------------------------------------------------||
F||--------5-----4--------7-------5-----4-----5b--------5-----4--------||
C||--------------------------------------------------------------------||
G||--0--0-----0-----0--0-----0-------0-----0------0--0-----0-----0--0--||
C||--------------------------------------------------------------------||
             PM         PM PM        
D||---------------------------||-----||      ||-------||
A||---------------------------||-----||first ||-------|| second
F||---5---5-------------------||-----|| end  ||--2~~--|| end
C||---5---5--5---5---5--------||--3--||      ||--2~~--||       Whole thing
G||---3---3--3---5---5--------||--3--||      ||--0~~--||            2x
C||--------------5---5--5--5--||--3--||      ||-------||

     PM      PM      PM
D||-------------------------------------------||
A||-------------------------------------------||
F||-----5~~-----------------------------------||
C||--2--5~~--5--3~~-----5~~-------------------||
G||--0--3~~--3--3~~--3--5~~-------------------||
C||-------------3~~--3--5~~--//pick-scrape\\--||

        PM    PM    PM    PM          PM PM PM PM
D||---------------------------------------------------||
A||--------6-----5-----------8-----6-----5--6--5------||
F||--------------------5--------------------------5b--||
C||---------------------------------------------------||
G||--0--0-----0-----0-----0-----0-----0---------------||
C||---------------------------------------------------||

     PM    PM    PM    PM          PM PM PM PM
D||---------------------------------------------------||
A||-----6-----5-----------8-----6-----5--6--5---------||
F||-----------------5---------------------------------||
C||--------------------------------------------3--5---||
G||--0-----0-----0-----0-----0-----0-----------3--5---||
C||--------------------------------------------3--5---||

Intro2 (01:27-01:32)
Verse (01:33-01:51)
Chorus (01:52-02:30)

Bridge: (02:31-03:09)

D||------------------------------------------------------------------------||
A||------------------------------------------17---15--17---12--13--12--13--||
F||---------------------------5~~--7~~--9~~--------------------------------||
C||--7~~--3~~--5~~--2~~--7~~--5~~--7~~--9~~--------------------------------||
G||--7~~--3~~--5~~--2~~--7~~--3~~--5~~--7~~--------------------------------||
C||--7~~--3~~--5~~--2~~--7~~-----------------------------------------------||


        PM PM PM    PM PM    PM    PM    PM     PM
D||----------------------------------------------------||
A||-----------------------------------8----------------||
F||-----------------------9-----7-----------7------9b--||
C||----------------------------------------------------||
G||--0--0--0--0--0--0--0-----0-----0-----0------0------||
C||----------------------------------------------------||

     PM PM    PM PM
D||-------------------------------------------||
A||-------------------------------------------||
F||--------------------9---7--9---4--5--4--5--||
C||-------------------------------------------||
G||--0--0--0--0--0--0-------------------------||
C||-------------------------------------------||
						
        PM PM PM    PM PM    PM    PM    PM     PM	
D||----------------------------------------------------||
A||-----------------------------------8----------------||
F||-----------------------9-----7-----------7------9b--||
C||----------------------------------------------------||
G||--0--0--0--0--0--0--0-----0-----0-----0------0------||
C||----------------------------------------------------||

     PM PM    PM PM
D||--------------------------------------------------||
A||--------------------17---15--17---12--13--12--13--||
F||--------------------------------------------------||
C||--------------------------------------------------||
G||--0--0--0--0--0--0--------------------------------||
C||--------------------------------------------------||

Chorus (03:10-03:46)

     PM        PM      PM       PM      PM       PM      PM PM      PM PM
D||----------------------------------------------------------------------------||
A||----------------------------------------------------------------------------||
F||---------4-----4h5--------7-----7p5--------4-----4h5--------7p5--------4h5--||
C||----------------------------------------------------------------------------||
G||-----3-----------------3----------------3-----------------------------------||
C||--3--3------3-------3--3-----3-------3--3-----3-------3--3-------3--3-------||

       PM    PM    PM PM     PM      PM    PM        PM    PM    PM PM        
D||--------------------------------------------------------------------||
A||--------------------------------------------------------------------||
F||--------5-----4--------7-------5-----4-----5b--------5-----4--------||
C||--------------------------------------------------------------------||
G||--0--0-----0-----0--0-----0-------0-----0------0--0-----0-----0--0--||
C||--------------------------------------------------------------------||

             PM         PM PM        
D||---------------------------||-----||      ||-------second-end-------||
A||---------------------------||-----||first ||------------------------||
F||---5---5-------------------||-----|| end  ||--2---------------------||
C||---5---5--5---5---5--------||--3--||      ||--2---------------------||
G||---3---3--3---5---5--------||--3--||      ||--0---------------------||
C||--------------5---5--5--5--||--3--||      ||-----//pick-scrape\\----||

D||-------------------------------------------------||
A||-------------------------------------------------||
F||-------------------------------------------------||
C||--3--------------3-----3--------------3-----5~~--||
G||--3--3--3--3--3--3--3--3--3--3--3--3--3--3--5~~--||
C||--3--3--3--3--3--3--3--3--3--3--3--3--3--3--5~~--||

        PM    PM    PM    PM          PM PM PM PM
D||---------------------------------------------------||
A||--------6-----5-----------8-----6-----5--6--5------||
F||--------------------5--------------------------5b--||
C||---------------------------------------------------||
G||--0--0-----0-----0-----0-----0-----0---------------||
C||---------------------------------------------------||

     PM    PM    PM    PM          PM PM PM PM
D||---------------------------------------------------||
A||-----6-----5-----------8-----6-----5--6--5---------||
F||-----------------5---------------------------------||
C||--------------------------------------------3--5---||
G||--0-----0-----0-----0-----0-----0-----------3--5---||
C||--------------------------------------------3--5---||

Outro: (03:47-04:04
(not the exact strumming pattern)
        PMPMPMPMPM    PMPMPMPM    PMPMPM     
D||---------------------------------------------------------------||
A||---------------------------------------------------------------||
F||---------------------------------------------------------------||
C||--7-------------7-----------7---------7---------7---------5h7--||
G||--7-------------7-----------7---------7---------7---------5h7--||
C||--7--7-7-7-7-7--7--7-7-7-7--7--7-7-7--7--7-7-7--7--7-7-7--5h7--||

        PMPMPMPMPM    PMPMPMPM    PMPMPM    PM      PM  PM   PM
D||---------------------------------------------------------------||
A||---------------------------------------------------------------||
F||---------------------------------------------------------------||
C||--7-------------7-----------7---------7---------7---7---7---7--||
G||--7-------------7-----------7---------7---------7---7---7---7--||
C||--7--7-7-7-7-7--7--7-7-7-7--7--7-7-7--7--7-7-7--7-7-7-7-7-7-7--||

                   PM      PM      PM      PM      PM
D||--------------------------------------------------------||
A||--------------------------------------------------------||
F||-------------------4h5-----4h5-----4h5-----4h5-----4h5--||
C||--7--3--5--2~~------------------------------------------||
G||--7--3--5--2~~--0-------0-------0-------0-------0-------||
C||--7--3--5--2~~------------------------------------------||

D||-------||
A||-------||
F||-------||
C||--2~~--||
G||--0~~--||
C||-------||
Tap to rate this tab
# A B C D E F G H I J K L M N O P Q R S T U V W X Y Z