Song name
# A B C D E F G H I J K L M N O P Q R S T U V W X Y Z

Bullet For My Valentine - Tears Dont Fall Acoustic tab

-------------------------------------------------------------------------------
TEARS DON'T FALL ACOUSTIC - Bullet For My Valentine
-------------------------------------------------------------------------------
Tabbed by: fattestpenguin
Email: squeoctane@yahoo.com

Tuning: Drop C

D|---------------------------------------------------------------------------|
A|----------------------8--6\5--5--6--5-----5--------------------------------|
F|-------7p5-----5-----------------------7-----7--5--------------------------|
C|--5h7-------7-----7--------------------------------------------------------|
G|---------------------------------------------------------------------------|
C|---------------------------------------------------------------------------|

D|---------------------------------------------------------------------------|
A|----------------------------------------10--12--13--8----------------------|
F|---------------------------------------------------------------------------|
C|--/7---/9---/10---/5---3--3h5p3--2-----------------------------------------|
G|------------------------------------5--------------------------------------|
C|---------------------------------------------------------------------------|

D|--12----------12----------12------10----------10---------10----------------|
A|------13----------13----------13------12----------12----------12-----------|
F|----------14----------14------------------12----------12-------------------|
C|---------------------------------------------------------------------------|
G|---------------------------------------------------------------------------|
C|---------------------------------------------------------------------------|

D|---------------------------------------------------------------------------|
A|-----------------------8--6\5--5--6--5-----5-------------------------------|
F|----------------------------------------7-----7--5-------------------------|
C|--/7---/9---/10---/5--------------------------------7----------------------|
G|---------------------------------------------------------------------------|
C|---------------------------------------------------------------------------|


| /  slide up
| \  slide down
| h  hammer-on
| p  pull-off
| ~  vibrato
| +  harmonic
| x  Mute note
===============================================================================
Tap to rate this tab
# A B C D E F G H I J K L M N O P Q R S T U V W X Y Z