Song name
# A B C D E F G H I J K L M N O P Q R S T U V W X Y Z

Bullet For My Valentine - Last To Know tab

Tabbed by: BurnSami

Song: Last To Know
Artist: Bullet For My Valentine
Album: Scream Aim Fire

Tuning: DGCFAD

Hope you enjoy it!

Intro/Verse riff:

Guitar 1
            PM PM PM PM PM PM         PM  PM  PM  PM  PM PM
D||--------------------------------------------------------------------------||
A||--------------------------------------------------------------------------||
F||---------------------------9h10p9--------------------------------------2--||
C||--4h5p4----------------------------12--10--12--10--9--0-----2---4---5-----||
G||---------7--5--7--5--4--0-------------------------------------------------||
D||--------------------------------------------------------------------------||

Guitar 2
            PM PM PM PM PM PM         PM  PM PM  PM PM  PM
D||--------------------------------------------------------------------------||
A||--------------------------------------------------------------------------||
F||--4h5p4---------------------7h8p7----------------------------------4---5--||
C||---------7--5--7--5--4--0----------10--8--10--8--10--0-----5---7----------||
G||--------------------------------------------------------------------------||
D||--------------------------------------------------------------------------||

Guitar 1

          PM PM PM PM PM PM        PM PM PM PM PM PM
D||--------------------------------------------------||
A||--------------------------------------------------||
F||--------------------------------------------------||
C||--------------------------------------------------||
G||--2----------------------2h3p2--------------------||
D||--0----0--0--0--0--0--0---------5--3--5--3--2--0--||

          PM PM PM PM PM PM        PM PM PM PM PM PM
D||--------------------------------------------------||
A||--------------------------------------------------||
F||--------------------------------------------------||
C||--------------------------------------------------||
G||--2----------------------2h3p2--------------------||
D||--0----0--0--0--0--0--0---------5--3--5--3--2--0--||

          PM PM PM PM    PM PM PM    PM PM    PM         PM PM PM PM PM
D||------------------------------------------------------------------------||
A||------------------------------------------------------------------------||
F||--7----------------7-----------7--------7-----7--5-------------------5--||
C||--7----7--7--7--7--7--7--7--7--7--7--7--7--7--5--5----5--5--5--5--5--5--||
G||--5----5--5--5--5--5--5--5--5--5--5--5--5--5--5--3----3--3--3--3--3--3--||
D||------------------------------------------------------------------------||

            PM PM PM PM PM PM
D||---------------------------||
A||---------------------------||
F||---------------------------||
C||--4h5p4--------------------||
G||---------7--5--7--5--4--0--||
D||---------------------------||

Guitar 2

D||---------------------||
A||---------------------||
F||-----------7----5----||
C||--2--------7----5----||
G||--2--------5----3----||
D||--0------------------||

            PM PM PM PM PM PM
D||---------------------------||
A||---------------------------||
F||--4h5p4--------------------||
C||---------7--5--7--5--4--0--||
G||---------------------------||
D||---------------------------||


Verse:

Both guitars

          PM PM PM PM PM PM        PM PM PM PM PM PM
D||--------------------------------------------------||
A||--------------------------------------------------||
F||--------------------------------------------------||
C||--------------------------------------------------||
G||--2----------------------2h3p2--------------------||
D||--0----0--0--0--0--0--0---------5--3--5--3--2--0--||

          PM PM PM PM PM PM        PM PM PM PM PM PM
D||--------------------------------------------------||
A||--------------------------------------------------||
F||--------------------------------------------------||
C||--------------------------------------------------||
G||--2----------------------2h3p2--------------------||
D||--0----0--0--0--0--0--0---------5--3--5--3--2--0--||

          PM PM PM PM    PM PM PM    PM PM    PM         PM PM PM PM PM
D||------------------------------------------------------------------------||
A||------------------------------------------------------------------------||
F||--7----------------7-----------7--------7-----7--5-------------------5--||
C||--7----7--7--7--7--7--7--7--7--7--7--7--7--7--5--5----5--5--5--5--5--5--||
G||--5----5--5--5--5--5--5--5--5--5--5--5--5--5--5--3----3--3--3--3--3--3--||
D||------------------------------------------------------------------------||

            PM PM PM PM PM PM                 PM PM PM PM PM PM
D||---------------------------||  D||---------------------------||
A||---------GUitar-1----------||  A||----------Guitar-2---------||
F||---------------------------||  F||--4h5p4--------------------||
C||--4h5p4--------------------||  C||---------7--5--7--5--4--0--||
G||---------7--5--7--5--4--0--||  G||---------------------------||
D||---------------------------||  D||---------------------------||

Repeat whole thing 2x


Pre-Chorus:

Guitar 1

             PM PM PM    PM PM PM    PM PM    PM                     PM PM PM
D||----------------------------------------------||     D||----------------------||
A||----------------------------------------------||     A||----------------------||
F||--7s9--9-----------9-----------9--------9-----||     F||--7s9--9-----------9--||
C||--7s9--9--9--9--9--9--9--9--9--9--9--9--9--9--|| 3x  C||--7s9--9--9--9--9--9--||
G||--5s7--7--7--7--7--7--7--7--7--7--7--7--7--7--||     G||--5s7--7--7--7--7--7--||
D||----------------------------------------------||     D||----------------------||

     PM PM       PM PM
D||-----------------------||
A||-----------------------||
F||-----------------------||
C||--------5-----------5--||
G||-----5-----5-----5-----||
D||--3-----------3--------||

Guitar 2

D||-----------||
A||-----------||
F||---~-------||
C||--2~~~~----||
G||--2~~~~----||
D||--0~~~~----||

    PM PM       PM PM
D||-----------------------||
A||-----------------------||
F||-----------------------||
C||--------5-----------5--||
G||-----5-----5-----5-----||
D||--3-----------3--------||


Chorus:

Both GUitars

(not the exact strumming pattern but it's
 easy to figure out how to play it, adn tremolo pick those PM's)

             PM PM PM   PM PM PM    PM PM
D||-------------------------------------------||
A||-------------------------------------------||
F||--7s9--9-----------9-----------9--------9--||
C||--7s9--9-----------9-----------9--------9--||
G||--5s7--7--7--7--7--7--7--7--7--7--7--7--7--||
D||-------------------------------------------||

        PM PM PM     PM PM              PM PM PM      PM  PM
D||------------------------||  D||---------------------------||
A||------------------------||  A||---------------------------||
F||--9--7--6--0--11--9--8--||  F||--12--10--9--0--14--12--11-||
C||------------------------||  C||---------------------------||
G||------Guitar-1----------||  G||-------Guitar-2------------||
D||------------------------||  C||---------------------------||

Both guitars
             PM PM PM   PM PM PM    PM PM
D||-------------------------------------------||
A||-------------------------------------------||
F||--7s9--9-----------9-----------9--------9--||
C||--7s9--9-----------9-----------9--------9--||
G||--5s7--7--7--7--7--7--7--7--7--7--7--7--7--||
D||-------------------------------------------||

D||-----------------------||
A||-----------------------||
F||--5----9----7----12----||
C||--5----9----7----12----||
G||--3----7----5----10----||
D||-----------------------||


Intro/Verse
Pre-Chorus
Chorus


Break:

Guitar 1

         PM    PM      PM PM    PM      PM
D||---------------------------------------------||
A||---------------------------------------------||
F||---------------------------------------------||
C||---------2-----2p0--------0-----0h2----------||
G||--3---3-----3-------3--3-----3-------3--3~---||
D||---------------------------------------------||

         PM    PM      PM PM    PM      PM
D||---------------------------------------------||
A||---------------------------------------------||
F||---------------------------------------------||
C||---------2-----2p0--------0-----0h2----------||
G||--3---3-----3-------3--3-----3-------3--3~---||
D||---------------------------------------------||

          PM    PM     PM PM    PM      PM
D||---------------------------------------------||
A||---------------------------------------------||
F||---------------------------------------------||
C||---------5-----5p4--------4-----4h5----------||
G||--3---3-----3-------3--3-----3-------3--3----||
D||---------------------------------------------||

          PM    PM     PM PM    PM      PM
D||---------------------------------------------||
A||---------------------------------------------||
F||---------------------------------------------||
C||---------5-----5p4--------4-----5h7----------||
G||--3---3-----3-------3--3-----3-------3--3----||  2x
D||---------------------------------------------||

Guitar 2

          PM    PM     PM PM    PM      PM
D||---------------------------------------------||
A||---------------------------------------------||
F||---------------------------------------------||
C||---------5-----5p4--------4-----4h5----------||
G||--3---3-----3-------3--3-----3-------3--3----||
D||---------------------------------------------||

          PM    PM     PM PM    PM      PM
D||---------------------------------------------||
A||---------------------------------------------||
F||---------------------------------------------||
C||---------5-----5p4--------4-----5h7----------||
G||--3---3-----3-------3--3-----3-------3-------||
D||----------------------------------------0----||

          PM    PM     PM PM    PM      PM
D||---------------------------------------------||
A||---------------------------------------------||
F||---------4-----4p2--------2-----2h4----------||
C||------0-----0-------0--0-----0-------0-------||
G||---------------------------------------------||
D||--0-------------------------------------0----||

          PM    PM     PM PM    PM      PM
D||---------------------------------------------||
A||---------------------------------------------||
F||---------4-----4p2--------2-----2h4----------||
C||------0-----0-------0--0-----0-------0-------||
G||----------------------------------------3----||  2x
D||--0------------------------------------------||


Solo:

D||-------------15--14------14-----------------------------||
A||--/17br~-------------15------15--10---------------------||
F||-------------------------------------12----/9~----/11~--||
C||--------------------------------------------------------||
G||--------------------------------------------------------||
C||--------------------------------------------------------||

D||--15--14--------------14--17--17br----14---22br----20p19------19------||
A||----------15------15--------------------------------------20------20--||
F||--------------14------------------------------------------------------||
C||----------------------------------------------------------------------||
G||----------------------------------------------------------------------||
D||----------------------------------------------------------------------||

D||--17--18--19--20--17--18--19--18--||
A||----------------------------------||
F||----------------------------------||
C||----------------------------------||
G||----------------------------------||
D||----------------------------------||

D||--15--17--18--19--15--17--18--17--||
A||----------------------------------||
F||----------------------------------||
C||----------------------------------||
G||----------------------------------||
D||----------------------------------||

D||--13--15--16--17--13--15--16--15--||
A||----------------------------------||
F||----------------------------------||
C||----------------------------------||
G||----------------------------------||
D||----------------------------------||

D||--17--19--17------17----------------||
A||--------------20------20--19--17~~--||
F||------------------------------------|| (not sure about this last one)
C||------------------------------------||
G||------------------------------------||
D||------------------------------------||

Turing solo same riff as Break

Pre-Chorus
Chorus

Outro:
Same riff as intro
Tap to rate this tab
# A B C D E F G H I J K L M N O P Q R S T U V W X Y Z