Song name
# A B C D E F G H I J K L M N O P Q R S T U V W X Y Z

Bullet For My Valentine - Intro tab

Help us improve GuitareTab! Take a short survey!
Intro
Bullet For My Valentine
The Poison
Drop C- CGCFAD

-Intro-
Violins, Cellos, whatever...
(I use my guitar on low distortion
and on the rhythm switch)
D|-----------------------------------------------|
A|-----------------------------------------------|
F|----------------------------7~~~~-9~~~~-10~~~~-|
C|----------8~~~~~~--10~~~~~~--------------------|
G|-----------------------------------------------|
C|-5~~~~~~---------------------------------------|
Gtr- Clean
D|-----------------------------------------------|
A|-----------------------------------------------|
F|-----------------------------------------------|
C|-----------------------------------------------|
G|-----------------------------------------------|
C|---------------------------5-5-5-5-------------|
                             pm- - -

Cello
D|-----------------------------------------------|
A|-----------------------------------------------|
F|----------------------------5~~~~-7~~~~--------|
C|----------8~~~~~~--7~~~~~~---------------------|
G|-----------------------------------------------|
C|-5~~~~~~--------------------------------5~~~~~-|
Violin
D|-----------------------------------------------|
A|--------------8~~~~-6~~~~-----------6~~~--8~~~-|
F|-5~~~~--7~~~~-------------5~~~-7~~~------------|
C|-----------------------------------------------|
G|-----------------------------------------------|
C|-----------------------------------------------|
Gtr- Clean
D|-----------------------------------------------|
A|-----------------------------------------------|
F|-----------------------------------------------|
C|-----------------------------------------------|
G|-----------------------------------------------|
C|-5-5-5-5-------------------5-5-5-5-------------|
   - - - -                   - - - -

Gtr 1- Clean
D||--------------------------------------|
A||o-------------------------------------|
F||--------------7-5-7-------------7-5-7-|
C||----8-7-8--------------8-7-8----------|
G||o-------------------------------------|
C||--5---------5--------5--------5-------|

D|---------------------------------------||
A|--------------------------------------o||
F|---3-2-3----3-2------3-2-3----3-3/5-3--||
C|----------------3----------------------||
G|--------------------------------------o||
C|-1--------1--------1--------1----------||


Gtr 1- Clean
D||--------------------------------------|
A||o-------------------------------------|
F||--------------7-5-7-------------7-5-7-|
C||----8-7-8--------------8-7-8----------|
G||o-------------------------------------|
C||--5---------5--------5--------5-------|
Gtr 2- Clean
D||--------------------------------------|
A||o-------------8-6-8-------------8-6-8-|
F||----7-5-7--------------7-5-7----------|
C||--------------------------------------|
G||o-------------------------------------|
C||--5---------5--------5--------5-------|

Gtr 1
D|---------------------------------------||
A|--------------------------------------o||
F|---3-2-3----3-2------3-2-3----3-3/5-3--||
C|----------------3----------------------||
G|--------------------------------------o||
C|-1--------1--------1--------1----------||
Gtr 2
D|---3-1-3----3-1------3-1-3----3-3/5-3--||
A|----------------3---------------------o||
F|---------------------------------------||
C|---------------------------------------||
G|--------------------------------------o||
C|-1--------1--------1--------1----------||

-Solo-
Gtr 1- Clean
D|-------------------------------------|
A|-------------------------------------|
F|-------------7-5-7-------------7-5-7-|
C|---8-7-8--------------8-7-8----------|
G|-------------------------------------|
C|-5---------5--------5--------5-------|
Gtr 2- Clean
D|-------------------------------------|
A|-------------8-6-8-------------8-6-8-|
F|---7-5-7--------------7-5-7----------|
C|-------------------------------------|
G|-------------------------------------|
C|-5---------5--------5--------5-------|
Gtr 3- Dist.
D|---------------------------------------|
A|-----10~~~~~~-8-10-11-8-10-11----------|
F|---7--------------------------10-12p10-|
C|-5-------------------------------------|
G|---------------------------------------|
C|---------------------------------------|


Gtr 1
D|--------------------------------------|
A|--------------------------------------|
F|---3-2-3----3-2------3-2-3----3-3/5-3-|
C|----------------3---------------------|
G|--------------------------------------|
C|-1--------1--------1--------1---------|
Gtr 2
D|---3-1-3----3-1------3-1-3----3-3/5-3-|
A|----------------3---------------------|
F|--------------------------------------|
C|--------------------------------------|
G|--------------------------------------|
C|-1--------1--------1--------1---------|
Gtr 3
D|--------------------------------------|
A|--------------------------------------|
F|-12~~~~~~~\\\\\-0(whammy-bend-down2)--|
C|--------------------------------------|
G|--------------------------------------|
C|--------------------------------------|


Gtr 1
D|-------------------------------------|
A|-------------------------------------|
F|-------------7-5-7-------------7-5-7-|
C|---8-7-8--------------8-7-8----------|
G|-------------------------------------|
C|-5---------5--------5--------5-------|
Gtr 2
D|-------------------------------------|
A|-------------8-6-8-------------8-6-8-|
F|---7-5-7--------------7-5-7----------|
C|-------------------------------------|
G|-------------------------------------|
C|-5---------5--------5--------5-------|
Gtr 3
D|---------------------------------------|
A|-----10~~~~~~-8-10-11-8-10-11----------|
F|---7--------------------------10-12p10-|
C|-5-------------------------------------|
G|---------------------------------------|
C|---------------------------------------|


Gtr 1
D|--------------------------------------|
A|--------------------------------------|
F|---3-2-3----3-2------3-2-3----3-3/5-3-|
C|----------------3---------------------|
G|--------------------------------------|
C|-1--------1--------1--------1---------|
Gtr 2
D|---3-1-3----3-1------3-1-3----3-3/5-3-|
A|----------------3---------------------|
F|--------------------------------------|
C|--------------------------------------|
G|--------------------------------------|
C|-1--------1--------1--------1---------|
Gtr 3
D|--------------------------------------|
A|--------/16-15~~----------------------|
F|-12~~~~----------0(whammy-bend-down2)-|
C|--------------------------------------|
G|--------------------------------------|
C|--------------------------------------|


Gtr 1
D|-------------------------------------|
A|-------------------------------------|
F|-------------7-5-7-------------7-5-7-|
C|---8-7-8--------------8-7-8----------|
G|-------------------------------------|
C|-5---------5--------5--------5-------|
Gtr 2
D|-------------------------------------|
A|-------------8-6-8-------------8-6-8-|
F|---7-5-7--------------7-5-7----------|
C|-------------------------------------|
G|-------------------------------------|
C|-5---------5--------5--------5-------|
Gtr 3
D|-------------------------------------|
A|-------------------------------------|
F|-3*b-(whammy-bend)~~~~~~~~~~~~~~~~~~~|
C|-------------------------------------|
G|-------------------------------------|
C|-------------------------------------|


Gtr 1
D|--------------------------------------|
A|--------------------------------------|
F|---3-2-3----3-2------3-2-3----3-3/5-3-|
C|----------------3---------------------|
G|--------------------------------------|
C|-1--------1--------1--------1---------|
Gtr 2
D|---3-1-3----3-1------3-1-3----3-3/5-3-|
A|----------------3---------------------|
F|--------------------------------------|
C|--------------------------------------|
G|--------------------------------------|
C|-1--------1--------1--------1---------|
Gtr 3
D|--------------------------------------|
A|--------------------------------------|
F|~~~~~~~~~~~~~~~~~~~~(release-whammy)--|
C|--------------------------------------|
G|--------------------------------------|
C|--------------------------------------|

-Outro-
Gtr 1
D||------------------------------------------------------||
A||o----------------------------------------------------o||
F||----2-2h3-2----2-2h3-2----2-2h3-2--5p2-3p2-5p2--------||
C||-----------------------------------------------3------||
G||o------------------------------------------------5---o||
C||--0----------0----------0--------------------------0--||
Related for Intro tab