Song name
# A B C D E F G H I J K L M N O P Q R S T U V W X Y Z

Bullet For My Valentine - Intro tab

Bullet For My Valentine
Intro
The Poison
2005
Submitted by: paramore_fans@yahoo.com

Matt Tuck: Guitar 1
Michael Padget: Guitar 2

Key: G#

Tuning: Standard EADGBe

Chords used:
Fm - 133111
C# - x46664
Eb - x68886
Cm - x35543


Violin: Fm--C#-Eb- x4

Matt: x7
         Fm                     C#               Eb
e|-----------------|-------------------------|---------|
B|-----------1---1-|-------------------------|---------|
G|---1-0-1-----3---|---1-0-1---1-0-----1-0-1-|---1-3-1-|
D|-----------------|---------------1---------|-1-------|
A|-----------------|-4-------4-------4-------|---------|
E|-1-------1-------|-------------------------|---------|
        x2

                        Cm                        Cm
e|-----------------------------------------------|---|
B|-----------------------------------------------|---|
G|---0-0h1p0---0-0h1p0---0-0h1p0-3-1-0---3-1-----|---|
D|-------------------------------------1-----1---|---|
A|-3---------3---------3-----------------------3-|-3-|
E|-----------------------------------------------|---|
                       x2

Michael: x5
         Fm                     C#               Eb
e|-----------1---1-|---1---1---1-------1---1-|---1-1-1-|
B|---1---1-----4---|-----4-------4-------4---|---------|
G|-----3-----------|---------------3---------|---------|
D|-----------------|-------------------------|-1-------|
A|-----------------|-4-------4-------4-------|---------|
E|-1-------1-------|-------------------------|---------|
        x2

Michael: Lead Solo
               Fm                    C#       Eb(pick slide)
e|-----------4-3--1-3-4-1-3-4---|----------|-------------------|
B|----------------------------4-|-4--4/6-6-|-------------------|
G|------1-0---------------------|----------|-------------------|
D|-1/3--------------------------|----------|-------------------|
A|------------------------------|----------|-8\7\6\5\4\3\2\1\0-|
E|------------------------------|----------|-------------------|

               Fm                    C#                Eb
e|-----------4-3--1-3-4-1-3-4---|----------|-9--8--------------------|
B|----------------------------4-|-4--4/6-6-|-------------------------|
G|------1-0---------------------|----------|-------------------------|
D|-1/3--------------------------|----------|-------------------------|
A|------------------------------|----------|-------8\7\6\5\4\3\2\1\0-|
E|------------------------------|----------|-------------------------|

    Fm (pickslide with effects)                           C#           
        Eb
e|-8/9/10/11/12/13/14/15/16/17/18/19/20-|-20\19\18\17\16\15\14\13\12\11\10\9\8-|---|
B|--------------------------------------|--------------------------------------|---|
G|--------------------------------------|--------------------------------------|---|
D|--------------------------------------|--------------------------------------|---|
A|--------------------------------------|--------------------------------------|---|
E|--------------------------------------|--------------------------------------|---|
Tap to rate this tab
# A B C D E F G H I J K L M N O P Q R S T U V W X Y Z