Song name
# A B C D E F G H I J K L M N O P Q R S T U V W X Y Z

Bullet For My Valentine - Suffocating Under Words Of Sorrow tab

Suffocating Under Words Of Sorrow (What Can I Do?)
Bullet For My Valentine
The Poison
Drop C- CGCFAD

-Intro-
Matt
D|--------------------------------------------------------------------------|
A|--------------------------------------------------------------------------|
F|----------------------------------------------------9h10p9\7h9p7\5hh7p5\4-|
C|-----10---9-------------12---10---9~-10-----------------------------------|
G|-0-0----0---0-10-0-12-0----0----0-------0-0-0-0-0-0-----------------------|
C|--------------------------------------------------------------------------|
   - -    -   -    -    -    -    -       - - - - - -
Padge
D|--------------------------------------------------------------------------|
A|--------------------------------------------------------------------------|
F|--------------------------------------------------------------------------|
C|-2-2------------------------------2~-2--------------pickslide-------------|
G|-0-0------------------------------0~-0-------------x\\\\\\\\\\\\\\\\\\\\--|
C|---------------------------------------------------x\\\\\\\\\\\\\\\\\\\\--|
   - -

Matt
D|------------------------------------------------------------------------|
A|------------------------------------------------------------------------|
F|-----------------------------------------------------9--10-7--9--5-7--4-|
C|------10---9-------------12---10---9~-10--------------------------------|
G|-0~-0----0---0-10-0-12-0----0----0-------0-0-0-0-0-0--------------------|
C|------------------------------------------------------------------------|
      -    -   -    -    -    -    -       - - - - - - -  -  -  -  - -  -
Padge
D|------------------------------------------------------------------------|
A|------------------------------------------------------------------------|
F|-----------------------------------------------------12-14-10-12-9-10-7-|
C|-2---------------------------------2~-2---------------------------------|
G|-0---------------------------------0~-0---------------------------------|
C|------------------------------------------------------------------------|
                                                       -  -  -  -  - -  -

Matt
D|---------------------------------------------------------------------------|
A|---------------------------------------------------------------------------|
F|-----------------------------------------------------9h10p9\7h9p7\5hh7p5\4-|
C|------10---9-------------12---10---9~-10-----------------------------------|
G|-0~-0----0---0-10-0-12-0----0----0-------0-0-0-0-0-0-----------------------|
C|---------------------------------------------------------------------------|
      -    -   -    -    -    -    -       - - - - - -
Padge
D|--------------------------------------------------------------------------------|
A|--------------------------------------------------------------------------------|
F|------9----7-------------10---9----7~-9--------------12h14p12\10h12p10\9h10p9\7-|
C|---------------9----10----------------------------------------------------------|
G|-0~-0----0---0----0----0----0----0-------0-0-0-0-0-0----------------------------|
C|--------------------------------------------------------------------------------|
      -    -   -    -    -    -    -       - - - - - -

Matt
D|------------------------------------------------------------------------|
A|------------------------------------------------------------------------|
F|-----------------------------------------------------9--10-7--9--5-7--4-|
C|------10---9-------------12---10---9~-10--------------------------------|
G|-0~-0----0---0-10-0-12-0----0----0-------0-0-0-0-0-0--------------------|
C|------------------------------------------------------------------------|
      -    -   -    -    -    -    -       - - - - - - -  -  -  -  - -  -
Padge
D|------------------------------------------------------------------------|
A|------------------------------------------------------------------------|
F|------9----7-------------10---9----7~-9--------------12-14-10-12-9-10-7-|
C|---------------9----10--------------------------------------------------|
G|-0~-0----0---0----0----0----0----0-------0-0-0-0-0-0--------------------|
C|------------------------------------------------------------------------|
      -    -   -    -    -    -    -       - - - - - - -  -  -  -  - -  -

Matt
D|-------------------------|
A|-------------------------|
F|-------------------------|
C|-3~--3--3--3--3--3--3--3-|
G|-3~--3--3--3--3--3--3--3-|
C|-3~--3--3--3--3--3--3--3-|
Padge
D|-------------------------|
A|--------6--6--5--5--6--6-|
F|--------5--5--5--5--5--5-|
C|-3~--3--3--3--3--3--3--3-|
G|-3~--3--3--3--3--3--3--3-|
C|-3~--3--3--3--3--3--3--3-|

-Verse-
Matt
D||----------------------------------------------------------------------------|
A||o---------------------------------------------------------------------------|
F||------------------------------------------------------9h10p9\7h9p7\5hh7p5\4-|
C||-------10---9-------------12---10---9~-10-----------------------------------|
G||o-0~-0----0---0-10-0-12-0----0----0-------0-0-0-0-0-0-----------------------|
C||----------------------------------------------------------------------------|
        -    -   -    -    -    -    -       - - - - - -
Padge
D||---------------------------------------------------------------------------------|
A||o--------------------------------------------------------------------------------|
F||-------9----7-------------10---9----7~-9--------------12h14p12\10h12p10\9h10p9\7-|
C||----------------9----10----------------------------------------------------------|
G||o-0~-0----0---0----0----0----0----0-------0-0-0-0-0-0----------------------------|
C||---------------------------------------------------------------------------------|
        -    -   -    -    -    -    -       - - - - - -
-"THE NIGHT HAS STARTED, HERE WE GO!!! (I'VE TAKING EVERYTHING!!!)
-"You line them up, we'll put them down... This is so frustrating

Matt
D|------------------------------------------------------------------------||
A|-----------------------------------------------------------------------o||
F|-----------------------------------------------------9--10-7--9--5-7--4-||
C|------10---9-------------12---10---9~-10--------------------------------||
G|-0~-0----0---0-10-0-12-0----0----0-------0-0-0-0-0-0-------------------o||
C|------------------------------------------------------------------------||
      -    -   -    -    -    -    -       - - - - - - -  -  -  -  - -  -
Padge
D|------------------------------------------------------------------------||
A|-----------------------------------------------------------------------o||
F|------9----7-------------10---9----7~-9--------------12-14-10-12-9-10-7-||
C|---------------9----10--------------------------------------------------||
G|-0~-0----0---0----0----0----0----0-------0-0-0-0-0-0-------------------o||
C|------------------------------------------------------------------------||
      -    -   -    -    -    -    -       - - - - - - -  -  -  -  - -  -
...THIS IS OUR TIME TO LOSE CONTROL!! (WHAT DO YOU WANT FROM ME!!!)
...To watch you sleazing all around, yet you keep on smilin'"


-Chorus-
Matt
D|-------------------------------------------------|
A|-------------------------------------------------|
F|-------------------------------4p0-5~~---4p0-5~~-|
C|-3~-----------------------2~-2---------2---------|
G|-3~-----------------------0~-0---------0---------|
C|-3~----------------------------------------------|
Padge
D|-------------------------------------------------|
A|-------6--6--5--5--6--6--------------------------|
F|-------5--5--5--5--5--5--------7p0-9~~---7p0-9~~-|
C|-3~-3--3--3--3--3--3--3---7~-7---------7---------|
G|-3~-3--3--3--3--3--3--3---0~-0---------0---------|
C|-3~-3--3--3--3--3--3--3--------------------------|
"What can I do to make you see? (YOU'RE GUILTY!!!)

Matt
D|------------------------------------------------------|
A|------------------------------------------------------|
F|-------------------------------4p0-5~~---5-4---7--5-4-|
C|-3~-----------------------5~-5---------5-----5--------|
G|-3~-----------------------5~-5---------5--------------|
C|-3~-----------------------5~-5---------5--------------|
Padge                                      - - - -  - -
D|------------------------------------------------------|
A|-------6--6--5--5--6--6-------------------------------|
F|-------5--5--5--5--5--5--------7p0-9~~---9-7---10-9-7-|
C|-3~-3--3--3--3--3--3--3---5~-5---------5-----9--------|
G|-3~-3--3--3--3--3--3--3---5~-5---------5--------------|
C|-3~-3--3--3--3--3--3--3---5~-5---------5--------------|
                                           - - - -  - -
...What can I do to make you feel? You're wanted

Matt
D|----------------------------------------------------|
A|----------------------------------------------------|
F|-------------------------------4p0-5~~---4*~-2h4p2~-|
C|-3~-----------------------2~-2---------2------------|
G|-3~-----------------------0~-0---------0------------|
C|-3~-------------------------------------------------|
Padge
D|----------------------------------------------------|
A|-------6--6--5--5--6--6-----------------------------|
F|-------5--5--5--5--5--5--------7p0-9~~---7*~-5h7p5~-|
C|-3~-3--3--3--3--3--3--3---7~-7---------7------------|
G|-3~-3--3--3--3--3--3--3---0~-0---------0------------|
C|-3~-3--3--3--3--3--3--3-----------------------------|
What can I do to make you see? (YOU'RE GUILTY!!!)

Matt
D|-----------------------------------------------------|
A|-----------------------------------------------------|
F|-------------------------------4p0-5~~---4p0-7--5-4~-|
C|-3~-----------------------5~-5---------5-------------|
G|-3~-----------------------5~-5---------5-------------|
C|-3~-----------------------5~-5---------5-------------|
Padge
D|-----------------------------------------------------|
A|-------6--6--5--5--6--6------------------------------|
F|-------5--5--5--5--5--5--------7p0-9~~---7p0-10-9-7~-|
C|-3~-3--3--3--3--3--3--3---5~-5---------5-------------|
G|-3~-3--3--3--3--3--3--3---5~-5---------5-------------|
C|-3~-3--3--3--3--3--3--3---5~-5---------5-------------|
...I'm Suffocating Under Words Of Sorrow"


-Verse-
Matt
D||----------------------------------------------------------------------------|
A||o---------------------------------------------------------------------------|
F||------------------------------------------------------9h10p9\7h9p7\5hh7p5\4-|
C||-------10---9-------------12---10---9~-10-----------------------------------|
G||o-0~-0----0---0-10-0-12-0----0----0-------0-0-0-0-0-0-----------------------|
C||----------------------------------------------------------------------------|
        -    -   -    -    -    -    -       - - - - - -
Padge
D||---------------------------------------------------------------------------------|
A||o--------------------------------------------------------------------------------|
F||-------9----7-------------10---9----7~-9--------------12h14p12\10h12p10\9h10p9\7-|
C||----------------9----10----------------------------------------------------------|
G||o-0~-0----0---0----0----0----0----0-------0-0-0-0-0-0----------------------------|
C||---------------------------------------------------------------------------------|
        -    -   -    -    -    -    -       - - - - - -
-"Her skin reflects behind the blur, I'm intoxicated
-YOUR FINGERS RUNNING THROUGH MY HAIR!!! (BUT IT'S ALL JUST FICTION!!!)

Matt
D|------------------------------------------------------------------------||
A|-----------------------------------------------------------------------o||
F|-----------------------------------------------------9--10-7--9--5-7--4-||
C|------10---9-------------12---10---9~-10--------------------------------||
G|-0~-0----0---0-10-0-12-0----0----0-------0-0-0-0-0-0-------------------o||
C|------------------------------------------------------------------------||
      -    -   -    -    -    -    -       - - - - - - -  -  -  -  - -  -
Padge
D|------------------------------------------------------------------------||
A|-----------------------------------------------------------------------o||
F|------9----7-------------10---9----7~-9--------------12-14-10-12-9-10-7-||
C|---------------9----10--------------------------------------------------||
G|-0~-0----0---0----0----0----0----0-------0-0-0-0-0-0-------------------o||
C|------------------------------------------------------------------------||
      -    -   -    -    -    -    -       - - - - - - -  -  -  -  - -  -
...Where am I from? Why am I here? You're so predictable
...SHE STEPS OUT FROM HER UNDERWEAR!!! (SO BEAUTIFUL!!!)


-Chorus-
Matt
D|-------------------------------------------------|
A|-------------------------------------------------|
F|-------------------------------4p0-5~~---4p0-5~~-|
C|-3~-----------------------2~-2---------2---------|
G|-3~-----------------------0~-0---------0---------|
C|-3~----------------------------------------------|
Padge
D|-------------------------------------------------|
A|-------6--6--5--5--6--6--------------------------|
F|-------5--5--5--5--5--5--------7p0-9~~---7p0-9~~-|
C|-3~-3--3--3--3--3--3--3---7~-7---------7---------|
G|-3~-3--3--3--3--3--3--3---0~-0---------0---------|
C|-3~-3--3--3--3--3--3--3--------------------------|
"What can I do to make you see? (YOU'RE GUILTY!!!)

Matt
D|------------------------------------------------------|
A|------------------------------------------------------|
F|-------------------------------4p0-5~~---5-4---7--5-4-|
C|-3~-----------------------5~-5---------5-----5--------|
G|-3~-----------------------5~-5---------5--------------|
C|-3~-----------------------5~-5---------5--------------|
Padge                                      - - - -  - -
D|------------------------------------------------------|
A|-------6--6--5--5--6--6-------------------------------|
F|-------5--5--5--5--5--5--------7p0-9~~---9-7---10-9-7-|
C|-3~-3--3--3--3--3--3--3---5~-5---------5-----9--------|
G|-3~-3--3--3--3--3--3--3---5~-5---------5--------------|
C|-3~-3--3--3--3--3--3--3---5~-5---------5--------------|
                                           - - - -  - -
...What can I do to make you feel? You're wanted

Matt
D|----------------------------------------------------|
A|----------------------------------------------------|
F|-------------------------------4p0-5~~---4*~-2h4p2~-|
C|-3~-----------------------2~-2---------2------------|
G|-3~-----------------------0~-0---------0------------|
C|-3~-------------------------------------------------|
Padge
D|----------------------------------------------------|
A|-------6--6--5--5--6--6-----------------------------|
F|-------5--5--5--5--5--5--------7p0-9~~---7*~-5h7p5~-|
C|-3~-3--3--3--3--3--3--3---7~-7---------7------------|
G|-3~-3--3--3--3--3--3--3---0~-0---------0------------|
C|-3~-3--3--3--3--3--3--3-----------------------------|
...What can I do to make you see? (YOU'RE GUILTY!!!)

Matt
D|-----------------------------------------------------|
A|-----------------------------------------------------|
F|-------------------------------4p0-5~~---4p0-7--5-4~-|
C|-3~-----------------------5~-5---------5-------------|
G|-3~-----------------------5~-5---------5-------------|
C|-3~-----------------------5~-5---------5-------------|
Padge
D|-----------------------------------------------------|
A|-------6--6--5--5--6--6------------------------------|
F|-------5--5--5--5--5--5--------7p0-9~~---7p0-10-9-7~-|
C|-3~-3--3--3--3--3--3--3---5~-5---------5-------------|
G|-3~-3--3--3--3--3--3--3---5~-5---------5-------------|
C|-3~-3--3--3--3--3--3--3---5~-5---------5-------------|
...I'm Suffocating Under Words Of Sorrow"


-Solo-
Matt
D|-----------------------------------------------------------------|
A|-/10~~~--10-12-13-12-10----------10-12-12pbr-12pbr-12pbr---------|
F|------------------------10-9~~~--------------------------9-10~~~-|
C|-----------------------------------------------------------------|
G|-----------------------------------------------------------------|
C|-----------------------------------------------------------------|

D|------------------------------------------------------|
A|-10-12-/13~~-12~~-/15~~-12~~--13~~-15~~-13~~-15p13p12-|
F|------------------------------------------------------|
C|------------------------------------------------------|
G|------------------------------------------------------|
C|------------------------------------------------------|
               T(finger tapping)T        T
D|--------------------------------------------------------|
A|--------------------------------------------------------|
F|-7h9p7h9p7h9-14p9p7h9p7h9p7h9-12p9p7h9-14p9p7h9p7h9p7h9-|
C|--------------------------------------------------------|
G|--------------------------------------------------------|
C|--------------------------------------------------------|
   T        T        T            T            T              T
D|---------------------------------------------------------------------|
A|---------------------------------------------------------------------|
F|-14p9p7h9-12p9p7h9-13p9p7h9p7h9-14p9p7h9p7h9-12p9p7h9p7h9p7-12p9p7h9-|
C|---------------------------------------------------------------------|
G|---------------------------------------------------------------------|
C|---------------------------------------------------------------------|

D|---------------------------------------------------------------|
A|---------------------------------------------------------------|
F|---------------------------------------------------------------|
C|-10\--7~~~~-9~~~~-10~~~~-12~~~~-10~~~~-12~~~~-10~~~~-9~~~~-7~~-|
G|-10\-----------------------------------------------------------|
C|---------------------------------------------------------------|
Padge Under Solo
D|-------------------------------------------------------------------------|
A|-------------------------------------------------------------------------|
F|-------------------------------------------------------------------------|
C|-----2-----2-----2-----2-----2-----2-----5-----5-----5-----5-----5-----5-|
G|-0-0-0-0-0-0-0-0-0-0-0-0-0-0-0-0-0-0-3-3-3-3-3-3-3-3-3-3-3-3-3-3-3-3-3-3-|
C|-------------------------------------------------------------------------|
   - -   - -   - -   - -   - -   - -   - -   - -   - -   - -   - -   - -
D|-----------------------------------------------------|
A|-13-15-/17~~-15~~-/18~~-15~~-17~~-18~~-17~~-18p17p15-|
F|-----------------------------------------------------|
C|-----------------------------------------------------|
G|-----------------------------------------------------|
C|-----------------------------------------------------|

D|-------------------------------------------------------------------------|
A|-------------------------------------------------------------------------|
F|-------------------------------------------------------------------------|
C|-------------------------------------------------------------------------|
G|-000-000-000-000-000-000-000-000-000-000-333-333-333-333-----------------|
C|---------------------------------------------------------333-333-333-333-|
   --- --- --- --- --- --- --- --- --- --- --- --- --- --- --- --- --- ---
D|------------------------------------|
A|------------------------------------|
F|-9~~~~-10~~~~-9~~~~-7~~~~-5~~~~-----|
C|------------------------------------|
G|------------------------------------|
C|--------------------------------10\-|

-Breakdown-
Matt
D|---------------------------------------------------------------------------|
A|---------------------------------------------------------------------------|
F|---------------------------------------------------------------------------|
C|-----10---10p9-----12---12p9-----9h10-----10---10p9-----12---12p9-----9h10-|
G|-0-0----0------0-0----0------0-0------0-0----0------0-0----0------0-0------|
C|---------------------------------------------------------------------------|
   - -    -      - -    -      - -      - -    -      - -    -      - -
Padge
D|---------------------------------------------------------------------------|
A|---------------------------------------------------------------------------|
F|-2~~~~~~~~~~~~~~~~~~~~~~~~~~~~~~~~~~~~~~~~~~~~~~~~~~~~~~~~~~~~~~~~~~~~~~~~~|
C|-2~~~~~~~~~~~~~~~~~~~~~~~~~~~~~~~~~~~~~~~~~~~~~~~~~~~~~~~~~~~~~~~~~~~~~~~~~|
G|-0~~~~~~~~~~~~~~~~~~~~~~~~~~~~~~~~~~~~~~~~~~~~~~~~~~~~~~~~~~~~~~~~~~~~~~~~~|
C|---------------------------------------------------------------------------|

Matt
D|-----------------------------------------------------------------------------------|
A|-----------------------------------------------------------------------------------|
F|-----------------------------------------------------------------------------------|
C|-----10---10p9-----12---12p9-----9h10-------10----10p9-------12----12p9-------9h10-|
G|-8-8----8------8-8----8------8-8------10-10----10------10-10----10------10-10------|
C|-----------------------------------------------------------------------------------|
   - -    -      - -    -      - -      -  -     -       -  -     -       -  -
Padge
D|-----------------------------------------------------------------------------------|
A|-----------------------------------------------------------------------------------|
F|-----------------------------------------------------------------------------------|
C|-3~~~~~~~~~~~~~~~~~~~~~~~~~~~~~~~~~~~-5~~~~~~~~~~~~~~~~~~~~~~~~~~~~~~~~~~~~~~~~~~~~|
G|-3~~~~~~~~~~~~~~~~~~~~~~~~~~~~~~~~~~~-5~~~~~~~~~~~~~~~~~~~~~~~~~~~~~~~~~~~~~~~~~~~~|
C|-3~~~~~~~~~~~~~~~~~~~~~~~~~~~~~~~~~~~-5~~~~~~~~~~~~~~~~~~~~~~~~~~~~~~~~~~~~~~~~~~~~|

Matt
D|---------------------------------------------------------------------------|
A|---------------------------------------------------------------------------|
F|---------------------------------------------------------------------------|
C|-----10---10p9-----12---12p9-----9h10-----10---10p9-----12---12p9-----9h10-|
G|-0-0----0------0-0----0------0-0------0-0----0------0-0----0------0-0------|
C|---------------------------------------------------------------------------|
   - -    -      - -    -      - -      - -    -      - -    -      - -
Padge
D|---------------------------------------------------------------------------|
A|---------------------------------------------------------------------------|
F|---------------------------------------------------------------------------|
C|-2-2-----------2-2-----------2-2------2-2-----------2-2-----------2-2------|
G|-0-0-----------0-0-----------0-0------0-0-----------0-0-----------0-0------|
C|---------------------------------------------------------------------------|
   - -           - -           - -      - -           - -           - -

Matt
D|------------------------------------------------------------------------|
A|------------------------------------------------------------------------|
F|------------------------------------------------------------------------|
C|-----10---10p9-----12---12p9-----9h10-------10----10p9-------12~~-10~~~-|
G|-8-8----8------8-8----8------8-8------10-10----10------10-10------------|
C|------------------------------------------------------------------------|
   - -    -      - -    -      - -      -  -     -       -  -
Padge
D|------------------------------------------------------------------------|
A|------------------------------------------------------------------------|
F|-------------------------------------------------------------10~~-9~~~~-|
C|-3-3-----------3-3-----------3-3------5--5-------------5--5-------------|
G|-3-3-----------3-3-----------3-3------5--5-------------5--5-------------|
C|-3-3-----------3-3-----------3-3------5--5-------------5--5-------------|
   - -           - -           - -      -  -             -  -

Matt
D|---------------------------------------------------------------------------|
A|---------------------------------------------------------------------------|
F|---------------------------------------------------------------------------|
C|-----10---10p9-----12---12p9-----9h10-----10---10p9-----12---12p9-----9h10-|
G|-0-0----0------0-0----0------0-0------0-0----0------0-0----0------0-0------|
C|---------------------------------------------------------------------------|
   - -    -      - -    -      - -      - -    -      - -    -      - -
Padge
D|---------------------------------------------------------------------------|
A|---------------------------------------------------------------------------|
F|-----9----9p7------10---10p7-----7h9------9----9p7------10---10p7-----7h9--|
C|---------------------------------------------------------------------------|
G|-0-0----0------0-0----0------0-0------0-0----0------0-0----0------0-0------|
C|---------------------------------------------------------------------------|
   - -    -      - -    -      - -      - -    -      - -    -      - -

Matt
D|-----------------------------------------------------------------------------------|
A|-----------------------------------------------------------------------------------|
F|-----------------------------------------------------------------------------------|
C|-----10---10p9-----12---12p9-----9h10-------10----10p9-------12----12p9-------9h10-|
G|-8-8----8------8-8----8------8-8------10-10----10------10-10----10------10-10------|
C|-----------------------------------------------------------------------------------|
   - -    -      - -    -      - -      -  -     -       -  -     -       -  -
Padge
D|-----------------------------------------------------------------------------------|
A|-----------------------------------------------------------------------------------|
F|-----9----9p7------10---10p7-----7h9--------9-----9p7--------10----10p7-------7h9--|
C|-----------------------------------------------------------------------------------|
G|-8-8----8------8-8----8------8-8------10-10----10------10-10----10------10-10------|
C|-----------------------------------------------------------------------------------|
   - -    -      - -    -      - -      -  -     -       -  -     -       -  -

Matt
D|---------------------------------------------------------------------------|
A|---------------------------------------------------------------------------|
F|---------------------------------------------------------------------------|
C|-----10---10p9-----12---12p9-----9h10-----10---10p9-----12---12p9-----9h10-|
G|-0-0----0------0-0----0------0-0------0-0----0------0-0----0------0-0------|
C|---------------------------------------------------------------------------|
   - -    -      - -    -      - -      - -    -      - -    -      - -
Padge
D|---------------------------------------------------------------------------|
A|---------------------------------------------------------------------------|
F|-17-17-17-17-17-17-19-19-19-19-19-19-21-21-21-21-21-21-22-22-22-19-19-19-19|
C|-x--x--x--x--x--x--x--x--x--x--x--x--x--x--x--x--x--x--x--x--x--x--x--x--x-|
G|-15-15-15-15-15-15-17-17-17-17-17-17-19-19-19-19-19-19-20-20-20-17-17-17-17|
C|---------------------------------------------------------------------------|
"(THERE'S BODIES LYING ON THE FLOOR!!) But I keep on staring...

Matt
D|-----------------------------------------------------------------------------------|
A|-----------------------------------------------------------------------------------|
F|-----------------------------------------------------------------------------------|
C|-----10---10p9-----12---12p9-----9h10-------10----10p9-------12----12p9-------9h10-|
G|-8-8----8------8-8----8------8-8------10-10----10------10-10----10------10-10------|
C|-----------------------------------------------------------------------------------|
   - -    -      - -    -      - -      -  -     -       -  -     -       -  -
Padge
D|-------------------------------------------------------------------------|
A|-------------------------------------------------------------------------|
F|-21-21-21-21-21-21-21-21-21-21-22-21-19-19-19-19-19-19-19-19-19-19-19-19-|
C|-x--x--x--x--x--x--x--x--x--x--x--x--x--x--x--x--x--x--x--x--x--x--x--x--|
G|-19-19-19-19-19-19-19-19-19-19-19-19-17-17-17-17-17-17-17-17-17-17-17-17-|
C|-------------------------------------------------------------------------|
...(MY WORLD IS OVER!!! CLOSE THE DOOR!!!)"

Matt
"HER SKIN REFLECTS BEHIND THE BLUR!!
D|--------------------------------------------------------------------------|
A|--------------------------------------------------------------------------|
F|----------------------------------------------------9h10p9\7h9p7\5hh7p5\4-|
C|-----10---9-------------12---10---9~-10-----------------------------------|
G|-0-0----0---0-10-0-12-0----0----0-------0-0-0-0-0-0-----------------------|
C|--------------------------------------------------------------------------|
   - -    -   -    -    -    -    -       - - - - - -
Padge
D|-------------------------------------------------------------------------------|
A|-------------------------------------------------------------------------------|
F|----------------------------------7~-9--------------12h14p12\10h12p10\9h10p9\7-|
C|-------------------------------------------------------------------------------|
G|--------------------------------0-------0-0-0-0-0-0----------------------------|
C|-------------------------------------------------------------------------------|
                                          ...I'm intoxicated"
Matt
D|------------------------------------------------------------------------|
A|------------------------------------------------------------------------|
F|-----------------------------------------------------9--10-7--9--5-7--4-|
C|------10---9-------------12---10---9~-10--------------------------------|
G|-0~-0----0---0-10-0-12-0----0----0-------0-0-0-0-0-0--------------------|
C|------------------------------------------------------------------------|
      -    -   -    -    -    -    -       - - - - - - -  -  -  -  - -  -
Padge
D|------------------------------------------------------------------------|
A|------------------------------------------------------------------------|
F|------9----7-------------10---9----7~-9--------------12-14-10-12-9-10-7-|
C|---------------9----10--------------------------------------------------|
G|-0~-0----0---0----0----0----0----0-------0-0-0-0-0-0--------------------|
C|------------------------------------------------------------------------|
      -    -   -    -    -    -    -       - - - - - - -  -  -  -  - -  -
...Where am I from? Why am I here? You're so predictable

Matt
D|---------------------------------------------------------------------------|
A|---------------------------------------------------------------------------|
F|-----------------------------------------------------9h10p9\7h9p7\5hh7p5\4-|
C|------10---9-------------12---10---9~-10-----------------------------------|
G|-0~-0----0---0-10-0-12-0----0----0-------0-0-0-0-0-0-----------------------|
C|---------------------------------------------------------------------------|
      -    -   -    -    -    -    -       - - - - - -
Padge
D|--------------------------------------------------------------------------------|
A|--------------------------------------------------------------------------------|
F|------9----7-------------10---9----7~-9--------------12h14p12\10h12p10\9h10p9\7-|
C|---------------9----10----------------------------------------------------------|
G|-0~-0----0---0----0----0----0----0-------0-0-0-0-0-0----------------------------|
C|--------------------------------------------------------------------------------|
      -    -   -    -    -    -    -       - - - - - -
YOUR FINGERS RUNNING THROUGH MY HAIR!!! (BUT IT'S ALL JUST FICTION!!!)

Matt
D|------------------------------------------------------------------------|
A|------------------------------------------------------------------------|
F|-----------------------------------------------------9--10-7--9--5-7--4-|
C|------10---9-------------12---10---9~-10--------------------------------|
G|-0~-0----0---0-10-0-12-0----0----0-------0-0-0-0-0-0--------------------|
C|------------------------------------------------------------------------|
      -    -   -    -    -    -    -       - - - - - - -  -  -  -  - -  -
Padge
D|------------------------------------------------------------------------|
A|------------------------------------------------------------------------|
F|------9----7-------------10---9----7~-9--------------12-14-10-12-9-10-7-|
C|---------------9----10--------------------------------------------------|
G|-0~-0----0---0----0----0----0----0-------0-0-0-0-0-0--------------------|
C|------------------------------------------------------------------------|
      -    -   -    -    -    -    -       - - - - - - -  -  -  -  - -  -
...SHE STEPS OUT FROM HER UNDERWEAR!!! (SO BEAUTIFUL!!!)

-Chorus-
Matt
D|-------------------------------------------------|
A|-------------------------------------------------|
F|-------------------------------4p0-5~~---4p0-5~~-|
C|-3~-----------------------2~-2---------2---------|
G|-3~-----------------------0~-0---------0---------|
C|-3~----------------------------------------------|
Padge
D|-------------------------------------------------|
A|-------6--6--5--5--6--6--------------------------|
F|-------5--5--5--5--5--5--------7p0-9~~---7p0-9~~-|
C|-3~-3--3--3--3--3--3--3---7~-7---------7---------|
G|-3~-3--3--3--3--3--3--3---0~-0---------0---------|
C|-3~-3--3--3--3--3--3--3--------------------------|
"What can I do to make you see? (YOU'RE GUILTY!!!)

Matt
D|------------------------------------------------------|
A|------------------------------------------------------|
F|-------------------------------4p0-5~~---5-4---7--5-4-|
C|-3~-----------------------5~-5---------5-----5--------|
G|-3~-----------------------5~-5---------5--------------|
C|-3~-----------------------5~-5---------5--------------|
Padge                                      - - - -  - -
D|------------------------------------------------------|
A|-------6--6--5--5--6--6-------------------------------|
F|-------5--5--5--5--5--5--------7p0-9~~---9-7---10-9-7-|
C|-3~-3--3--3--3--3--3--3---5~-5---------5-----9--------|
G|-3~-3--3--3--3--3--3--3---5~-5---------5--------------|
C|-3~-3--3--3--3--3--3--3---5~-5---------5--------------|
                                           - - - -  - -
...What can I do to make you feel? You're wanted

Matt
D|----------------------------------------------------|
A|----------------------------------------------------|
F|-------------------------------4p0-5~~---4*~-2h4p2~-|
C|-3~-----------------------2~-2---------2------------|
G|-3~-----------------------0~-0---------0------------|
C|-3~-------------------------------------------------|
Padge
D|----------------------------------------------------|
A|-------6--6--5--5--6--6-----------------------------|
F|-------5--5--5--5--5--5--------7p0-9~~---7*~-5h7p5~-|
C|-3~-3--3--3--3--3--3--3---7~-7---------7------------|
G|-3~-3--3--3--3--3--3--3---0~-0---------0------------|
C|-3~-3--3--3--3--3--3--3-----------------------------|
...What can I do to make you see? (YOU'RE GUILTY!!!)

Matt
D|-----------------------------------------------------|
A|-----------------------------------------------------|
F|-------------------------------4p0-5~~---4p0-7--5-4~-|
C|-3~-----------------------5~-5---------5-------------|
G|-3~-----------------------5~-5---------5-------------|
C|-3~-----------------------5~-5---------5-------------|
Padge
D|-----------------------------------------------------|
A|-------6--6--5--5--6--6------------------------------|
F|-------5--5--5--5--5--5--------7p0-9~~---7p0-10-9-7~-|
C|-3~-3--3--3--3--3--3--3---5~-5---------5-------------|
G|-3~-3--3--3--3--3--3--3---5~-5---------5-------------|
C|-3~-3--3--3--3--3--3--3---5~-5---------5-------------|
...I'm Suffocating Under Words Of Sorrow (WORDS OF SORROW!!!)

Matt
D|--------------------------------------------------------------------------------|
A|--------------------------------------------------------------------------------|
F|-----------------------------------------------------9h10p9\7h9p7\5hh7p5-4-2~~~-|
C|------10---9-------------12---10---9~-10----------------------------------------|
G|-0~-0----0---0-10-0-12-0----0----0-------0-0-0-0-0-0----------------------------|
C|--------------------------------------------------------------------------------|
      -    -   -    -    -    -    -       - - - - - -
Padge
D|-------------------------------------------------------------------------------------|
A|-------------------------------------------------------------------------------------|
F|------9----7-------------10---9----7~-9--------------12h14p12\10h12p10\9h10p9-7-9~~~-|
C|---------------9----10---------------------------------------------------------------|
G|-0~-0----0---0----0----0----0----0-------0-0-0-0-0-0---------------------------------|
C|-------------------------------------------------------------------------------------|
      -    -   -    -    -    -    -       - - - - - -
Tap to rate this tab
 
# A B C D E F G H I J K L M N O P Q R S T U V W X Y Z