Song name
# A B C D E F G H I J K L M N O P Q R S T U V W X Y Z

Bullet For My Valentine - The End tab

tabbed by jaxon666
email:jacksback92@hotmail.com for comments or questions.

p pull off
h hammer on
/ slide up
\ slide down
~ ring
* pinch harmonic


this is my first tab but im am so sure this is it...
iv'e looked at other tabs and ther're not as right... 

drop C tuning 
intro

clean with chorus, reverb and acoustic simulator.
D|---------------------------------|repeat
A|---------------------------------|3x
F|----10---9---10-------10---9---7-|
C|----------0-----------------0----|
G|--0----0---0--------0----0---0---|
C|-0-----------------0-------------|

D|---------------------------------|
A|---------------------------------|
F|----10---9---9/12-----10---9---7-|
C|----------0-----------------0----|
G|--0----0---0--------0----0---0---|
C|-0-----------------0-------------|


repeat these clean parts x2   >>>>>>>>>>>>>>>>>>>>>>>>>>>>>>>>>>>>>>>>>>>>>
D|-3---------------------------------------------------------------------|>
A|-3---------------------------------------------------------------------|>
F|-0----10---9---10-9--5-5-5h7p5------10---9---10-9--9/12----------------|>
C|------------0----0-0----------------------0----0-0---------------------|>
G|----0----0---0-------------------0-----0---0---------------------------|>
C|---0----------------------------0--------------------------------------|>
clean                                                                     >
D|-----------------------------------------------------------------------|>
A|-----------------------------------------------------------------------|>
F|------10---9---10-9--5-5-5h7p5------10---9---7-------------------------|>
C|------------0----0-0----------------------0----------------------------|>
G|----0----0---0-------------------0-----0---0---------------------------|>
C|---0----------------------------0--------------------------------------|>
>>>>>>>>>>>>>>>>>>>>>>>>>>>>>>>>>>>>>>>>>>>>>>>>>>>>>>>>>>>>>>>>>>>>>>>>>>>


Distortion lead intro solo... do the bends when ever u want.
D|-----------------------------------------------------------------------|
A|-----------------------------------------------------------------------|
F|----4/10------10/12\9------10------10/12\9---9\7-----------------------|
C|-----------------------------------------------------------------------|
G|-----------------------------------------------------------------------|
C|-----------------------------------------------------------------------|

pick slide is optional and figure out how many picks there are...
D|-----------------------------------------------------------------------|
A|-----------------------------------------------------------------------|
F|-----------------------------------------------------------------------|
C|-pick slide\-------------------------------------23-23-23-23-23--------|
G|-----------\10101010101010\9999/1212121212121212-20-20-20-20-20--------|
C|-----------\------------------------------------------------------b5r--|

Clean
D|-----------------------------------------------------------------------|
A|-----------------------------------------------------------------------|
F|------10---9---10-9--5-5-5h7p5------10---9---10-9--9/12----------------|
C|------------0----0-0----------------------0----0-0---------------------|
G|----0----0---0-------------------0-----0---0---------------------------|
C|---0----------------------------0--------------------------------------|

D|-----------------------------------------------------------------------|
A|-----------------------------------------------------------------------|
F|------10---9---10-9--5-5-5h7p5------10---9---7-------------------------|
C|------------0----0-0----------------------0----00000000----------------|
G|----0----0---0-------------------0-----0---0---00000000----------------|
C|---0----------------------------0--------------00000000----------------|
                                                 xxxxxxxx
D|-----------------------------------------------------------------------|
A|-----------------------------------------------------------------------|
F|------10---9---10-9--5-5-5h7p5------10---9---10-9--9/12----------------|
C|------------0----0-0----------------------0----0-0---------------------|
G|----0----0---0-------------------0-----0---0---------------------------|
C|---0----------------------------0--------------------------------------|

D|-----------------------------------------------------------------------|
A|-----------------------------------------------------------------------|
F|------10---9---10-9--5-5-5h7p5------10---9---7-------------------------|
C|------------0----0-0----------------------0----------------------------|
G|----0----0---0-------------------0-----0---0---------------------------|
C|---0----------------------------0--------------------------------------|

Distortion lead.. do bends when ever u want.(sounds best with a delay pedal)
D|-----------------------------------------------------------------------|
A|-----------------------------------------------------------------------|
F|----4/10------10/12\9------10------10/12\9---9\7-----------------------|
C|-----------------------------------------------------------------------|
G|-----------------------------------------------------------------------|
C|-----------------------------------------------------------------------|

pick slide is optional and figure out how many picks there are...
D|-----------------------------------------------------------------------|
A|-----------------------------------------------------------------------|
F|-----------------------------------------------------------------------|
C|-pick slide\-------------------------------------23-23-23-23-23--------|
G|-----------\10101010\9999/1212121212/1717171717--20-20-20-20-20---12\--|
C|-----------\------------------------------------------------------12\--|

break down 
D|-----------------------|-----------------------------------------------|
A|---repeat this 3x------|-----------------------------------------------|
F|-----------------------|-----------------------------------------------|
C|-------10------9----10-|--0000-7-0000-7-00-10\7------------------------|
G|-7777---7-7777-7-77--7-|--0000-7-0000-7-00-10\7------------------------|
C|-7777---7-7777-7-77--7-|--0000-7-0000-7-00-10\7------------------------|
   xxxx     xxxx   xx       xxxx   xxxx   xx

D|-----------------------------------------------------------------------|
A|-----------------------------------------------------------------------|
F|----------------------------5h7p5h7----5h7p5h7----5h8------------------|
C|-------10------9----10---00---------00---------00-------0~~~-----------|
G|-7777---7-7777-7-77--7---00---------00---------00-------0~~~-----------|
C|-7777---7-7777-7-77--7---00---------00---------00-------0~~~-----------|
   xxxx     xxxx   xx      xx         xx         xx                
                           
repeat 4x              (palm mute  0!)       repeat 2x
D|---------------------------------------|-------------------------------|
A|---------------------------------------|-------------------------------|
F|-10/-----------10---------9h10p9-0-7h9-|-10101010\9999/12121212/999999-|
C|-10/--0000--6--10-000000---------------|-------------------------------|
G|-8-/--0000--6--8--000000---------------|-------------------------------|
C|------0000--6-----000000---------------|-------------------------------|
        xxxx        xxxxxx         x

repeat only once       (palm mute  0!)       repeat 2x
D|---------------------------------------|-------------------------------|
A|---------------------------------------|-------------------------------|
F|-10/-----------10---------9h10p9-0-7h9-|-10101010\9999/12121212/999999-|
C|-10/--0000--6--10-000000---------------|-------------------------------|
G|-8-/--0000--6--8--000000---------------|-------------------------------|
C|------0000--6-----000000---------------|-------------------------------|
        xxxx        xxxxxx         x
repeat onle once       (palm mute  0!)       repeat 2x
D|---------------------------------------|-------------------------------|
A|---------------------------------------|-------------------------------|
F|-10/-----------10---------9h10p9-0-7h9-|-10101010\9999/12121212/999999-|
C|-10/--0000--6--10-000000---------------|-------------------------------|
G|-8-/--0000--6--8--000000---------------|-------------------------------|
C|------0000--6-----000000---------------|-------------------------------|
        xxxx        xxxxxx         x

D|-----------------------------------------------------------------------|
A|-----------------------------------------------------------------------|
F|-ring out--------------------------------------------------------------|
C|-0~~~-------------------------------------------------------0----------|
G|-0~~~-------------------------------------------------------0----------|
C|-0~~~-------------------------------------------------------0----------|
                                                              x
break down 
D|-----------------------|-----------------------------------------------|
A|---repeat this 3x------|-----------------------------------------------|
F|-----------------------|-----------------------------------------------|
C|-------10------9----10-|--0000-7-0000-7-00-10\7------------------------|
G|-7777---7-7777-7-77--7-|--0000-7-0000-7-00-10\7------------------------|
C|-7777---7-7777-7-77--7-|--0000-7-0000-7-00-10\7------------------------|
   xxxx     xxxx   xx       xxxx   xxxx   xx

D|-----------------------------------------------------------------------|
A|-----------------------------------------------------------------------|
F|----------------------------5h7p5h7----5h7p5h7----5h8------------------|
C|-------10------9----10---00---------00---------00----------------------|
G|-7777---7-7777-7-77--7---00---------00---------00----------------------|
C|-7777---7-7777-7-77--7---00---------00---------00----------------------|
   xxxx     xxxx   xx      xx         xx         xx   

D|-----------------------------------|-----------------------------------|
A|--repeat this 2x-------------------|-----------------------------------|
F|---------------------7p0-5p0-8p0-7-|---------------------7p0-5p0-8p0-7-|
C|-0000-0000-0000-0000---------------|-0000-0-00-0000-0000---------------|
G|-0000-0000-0000-0000---------------|-0000-0-00-0000-0000---------------|
C|-0000-0000-0000-0000---------------|-0000-0-00-0000-0000---------------|
   xxxx xxxx xxxx xxxx                 xxxx x xx xxxx xxxx

D|-----------------------------------------------------------------------|
A|-----------------------------------------------------------------------|
F|---------------------7p0-5p0-8p0-7---let ring out and then start outro-|
C|-0000-0000-0000-0000----------------0~~~~~-----------------------------|
G|-0000-0000-0000-0000----------------0~~~~~-----------------------------|
C|-0000-0000-0000-0000----------------0~~~~~-----------------------------|
   xxxx xxxx xxxx xxxx                 

outro solo twin guitar so do this tab and play with it.
there guitars have high gain and their natural harmonic kick in kwicker
so add a pinch harmonic on last part of solo
D-----------------------------------------------------------------------|
A----------------*------------------------------------------------------|
F-5/10--9--4/7--\5-repeat this until song fades out---------------------|
C-----------------------------------------------------------------------|
G-----------------------------------------------------------------------|
C-----------------------------------------------------------------------|


leave comments or email me if u have questions
this took me all day so im sure its as close as 
possible so hope u like it...
Tap to rate this tab
 
# A B C D E F G H I J K L M N O P Q R S T U V W X Y Z