Guitaretab - guitar tabs
Song name
# A B C D E F G H I J K L M N O P Q R S T U V W X Y Z

Bullet For My Valentine - Hearts Burst Into Fire Acoustic tab

Hearts Burst Into Fire Acoustic
Bullet For My Valentine
Scream Aim Fire Deluxe Edition
Drop C- CGCFAD

-Intro-
Matt & Padge
D|-------------------------------------------------------------------|
A|-------------6--6-6-6-6--6-5--5-5-5-5--5-6--6-6-6-6--6-5--5-5--5-6-|
F|-------------5--5-5-5-5--5-5--5-5-5-5--5-5--5-5-5-5--5-5--5-5--5-5-|
C|-x--x--x--x--3--3-3-3-3--3-3--3-3-3-3--3-3--3-3-3-3--3-3--3-3--3-3-|
G|-x--x--x--x--3--3-3-3-3--3-3--3-3-3-3--3-3--3-3-3-3--3-3--3-3--3-3-|
C|-x--x--x--x--3--3-3-3-3--3-3--3-3-3-3--3-3--3-3-3-3--3-3--3-3--3-3-|
"1, 2, 3, 4"

D|-5--5-5-5-5--5-3--3-3-3-3--3-5--5-5-5-5--5--3--5--3--5-|
A|-6--6-6-6-6--6-5--5-5-5-5--5-6--6-6-6-6--6--5--6--5--6-|
F|-3--3-3-3-3--3-3--3-3-3-3--3-3--3-3-3-3--3--3--3--3--3-|
C|-0--0-0-0-0--0-0--0-0-0-0--0-0--0-0-0-0--0--0--0--0--0-|
G|-0--0-0-0-0--0-0--0-0-0-0--0-0--0-0-0-0--0--0--0--0--0-|
C|-0--0-0-0-0--0-0--0-0-0-0--0-0--0-0-0-0--0--0--0--0--0-|


-Verse-
D||--------------------------------------------------------|
A||o-6--6-6-6-6--6-5--5-5-5-5--5-6--6-6-6-6--6-5--5-5--5-6-|
F||--5--5-5-5-5--5-5--5-5-5-5--5-5--5-5-5-5--5-5--5-5--5-5-|
C||--3--3-3-3-3--3-3--3-3-3-3--3-3--3-3-3-3--3-3--3-3--3-3-|
G||o-3--3-3-3-3--3-3--3-3-3-3--3-3--3-3-3-3--3-3--3-3--3-3-|
C||--3--3-3-3-3--3-3--3-3-3-3--3-3--3-3-3-3--3-3--3-3--3-3-|
-"I'm comin' home, I've been gone for far too long
-I'm leavin', have I fucked things up again?

D|-5--5-5-5-5--5-3--3-3-3-3--3-5--5-5-5-5--5--3--5--3--5--||
A|-6--6-6-6-6--6-5--5-5-5-5--5-6--6-6-6-6--6--5--6--5--6-o||
F|-3--3-3-3-3--3-3--3-3-3-3--3-3--3-3-3-3--3--3--3--3--3--||
C|-0--0-0-0-0--0-0--0-0-0-0--0-0--0-0-0-0--0--0--0--0--0--||
G|-0--0-0-0-0--0-0--0-0-0-0--0-0--0-0-0-0--0--0--0--0--0-o||
C|-0--0-0-0-0--0-0--0-0-0-0--0-0--0-0-0-0--0--0--0--0--0--||
...Do you remember me at all?
...I'm dreamin', too much time without you spent"


-Pre Chorus-
D|-------------------------------------------------------|
A|-------------------------------------------------------|
F|-3-3-3-3-3-3-3-3-3-3-3-3--3-5--7-7-7-7-7-7-7-7-7-7-7-7-|
C|-3-3-3-3-3-3-3-3-3-3-3-3--3-5--7-7-7-7-7-7-7-7-7-7-7-7-|
G|-1-1-1-1-1-1-1-1-1-1-1-1--1-3--5-5-5-5-5-5-5-5-5-5-5-5-|
C|-------------------------------------------------------|
"It hurts... wounds so sore

D|----------------------------------------------------------|
A|----------------------------------------------------------|
F|-5--3-3-3-3-3-3-3-3-3-3-3-3--2-3--5-5-5-5-5-5-5-5-5-5-5-5-|
C|-5--3-3-3-3-3-3-3-3-3-3-3-3--2-3--5-5-5-5-5-5-5-5-5-5-5-5-|
G|-3--1-1-1-1-1-1-1-1-1-1-1-1--0-1--3-3-3-3-3-3-3-3-3-3-3-3-|
C|----------------------------------------------------------|
...Now I'm torn... now I'm torn

D||------------------------------------------------------------------||-----|
A||o----------------------------------------------------------------o||-----|
F||--3-5--7-7-7-7-7-7-7-7--3-3-3-3-3-3-3-3--5-5-5-5-5-5-5-5-5-5-5-5--||-3-5-|
C||--3-5--7-7-7-7-7-7-7-7--3-3-3-3-3-3-3-3--5-5-5-5-5-5-5-5-5-5-5-5--||-3-5-|
G||o-1-3--5-5-5-5-5-5-5-5--1-1-1-1-1-1-1-1--3-3-3-3-3-3-3-3-3-3-3-3-o||-1-3-|
C||------------------------------------------------------------------||-----|
...I've been far awaay
-When I see your face"
	`

-Chorus-
D|----------------------------------------------------------------|
A|----------------------------------------------------------------|
F|-7-7-7-7-7-7-7-7--3-3-3-3-3-3-3-3--5-5-5-5-5-5-5-5-5-5-5-5--3-5-|
C|-7-7-7-7-7-7-7-7--3-3-3-3-3-3-3-3--5-5-5-5-5-5-5-5-5-5-5-5--3-5-|
G|-5-5-5-5-5-5-5-5--1-1-1-1-1-1-1-1--3-3-3-3-3-3-3-3-3-3-3-3--1-3-|
C|----------------------------------------------------------------|
"My Hearts Burst Into Fire...

D|----------------------------------------------------------------------------|
A|----------------------------------------------------------------------------|
F|-7-7-7-7-7-7-7-7--3-3-3-3-3-3-3-3--5-5-5-5-5-5-5-5-5-5-5-5------------------|
C|-7-7-7-7-7-7-7-7--3-3-3-3-3-3-3-3--5-5-5-5-5-5-5-5-5-5-5-5--7-7-7-7-7-7-7-7-|
G|-5-5-5-5-5-5-5-5--1-1-1-1-1-1-1-1--3-3-3-3-3-3-3-3-3-3-3-3--3-3-3-3-3-3-3-3-|
C|----------------------------------------------------------------------------|
...Hearts Burst Into Fire"


-Verse-
D||--------------------------------------------------------|
A||o-6--6-6-6-6--6-5--5-5-5-5--5-6--6-6-6-6--6-5--5-5--5-6-|
F||--5--5-5-5-5--5-5--5-5-5-5--5-5--5-5-5-5--5-5--5-5--5-5-|
C||--3--3-3-3-3--3-3--3-3-3-3--3-3--3-3-3-3--3-3--3-3--3-3-|
G||o-3--3-3-3-3--3-3--3-3-3-3--3-3--3-3-3-3--3-3--3-3--3-3-|
C||--3--3-3-3-3--3-3--3-3-3-3--3-3--3-3-3-3--3-3--3-3--3-3-|
-"You're not alone, I'm now I'm far from home
-I'm leavin', do you wait for me again?

D|-5--5-5-5-5--5-3--3-3-3-3--3-5--5-5-5-5--5--3--5--3--5--||
A|-6--6-6-6-6--6-5--5-5-5-5--5-6--6-6-6-6--6--5--6--5--6-o||
F|-3--3-3-3-3--3-3--3-3-3-3--3-3--3-3-3-3--3--3--3--3--3--||
C|-0--0-0-0-0--0-0--0-0-0-0--0-0--0-0-0-0--0--0--0--0--0--||
G|-0--0-0-0-0--0-0--0-0-0-0--0-0--0-0-0-0--0--0--0--0--0-o||
C|-0--0-0-0-0--0-0--0-0-0-0--0-0--0-0-0-0--0--0--0--0--0--||
...Do you remember me at all?
...I'm screamin', no more days without you spent"


-Pre Chorus-
D|-------------------------------------------------------|
A|-------------------------------------------------------|
F|-3-3-3-3-3-3-3-3-3-3-3-3--3-5--7-7-7-7-7-7-7-7-7-7-7-7-|
C|-3-3-3-3-3-3-3-3-3-3-3-3--3-5--7-7-7-7-7-7-7-7-7-7-7-7-|
G|-1-1-1-1-1-1-1-1-1-1-1-1--1-3--5-5-5-5-5-5-5-5-5-5-5-5-|
C|-------------------------------------------------------|
"It hurts... wounds so sore

D|----------------------------------------------------------|
A|----------------------------------------------------------|
F|-5--3-3-3-3-3-3-3-3-3-3-3-3--2-3--5-5-5-5-5-5-5-5-5-5-5-5-|
C|-5--3-3-3-3-3-3-3-3-3-3-3-3--2-3--5-5-5-5-5-5-5-5-5-5-5-5-|
G|-3--1-1-1-1-1-1-1-1-1-1-1-1--0-1--3-3-3-3-3-3-3-3-3-3-3-3-|
C|----------------------------------------------------------|
...Now I'm torn... now I'm torn

D||------------------------------------------------------------------||-----|
A||o----------------------------------------------------------------o||-----|
F||--3-5--7-7-7-7-7-7-7-7--3-3-3-3-3-3-3-3--5-5-5-5-5-5-5-5-5-5-5-5--||-3-5-|
C||--3-5--7-7-7-7-7-7-7-7--3-3-3-3-3-3-3-3--5-5-5-5-5-5-5-5-5-5-5-5--||-3-5-|
G||o-1-3--5-5-5-5-5-5-5-5--1-1-1-1-1-1-1-1--3-3-3-3-3-3-3-3-3-3-3-3-o||-1-3-|
C||------------------------------------------------------------------||-----|
...I've been far awaay
-When I see your face"
	`

-Chorus-
D|----------------------------------------------------------------|
A|----------------------------------------------------------------|
F|-7-7-7-7-7-7-7-7--3-3-3-3-3-3-3-3--5-5-5-5-5-5-5-5-5-5-5-5--3-5-|
C|-7-7-7-7-7-7-7-7--3-3-3-3-3-3-3-3--5-5-5-5-5-5-5-5-5-5-5-5--3-5-|
G|-5-5-5-5-5-5-5-5--1-1-1-1-1-1-1-1--3-3-3-3-3-3-3-3-3-3-3-3--1-3-|
C|----------------------------------------------------------------|
"My Hearts Burst Into Fire...

D|----------------------------------------------------------------------------|
A|----------------------------------------------------------------------------|
F|-7-7-7-7-7-7-7-7--3-3-3-3-3-3-3-3--5-5-5-5-5-5-5-5-5-5-5-5------------------|
C|-7-7-7-7-7-7-7-7--3-3-3-3-3-3-3-3--5-5-5-5-5-5-5-5-5-5-5-5--7-7-7-7-7-7-7-7-|
G|-5-5-5-5-5-5-5-5--1-1-1-1-1-1-1-1--3-3-3-3-3-3-3-3-3-3-3-3--3-3-3-3-3-3-3-3-|
C|----------------------------------------------------------------------------|
...Hearts Burst Into Fire"

[ Tab from: http://www.guitaretab.com/b/bullet-for-my-valentine/186411.html ]
-Breakdown-
Matt
D||----------------------------------------------------------------||
A||o--------------------------------------------------------------o||
F||--3----5----2~~~~~~~~~~~~~~~~~~~~~~~~~~~~~~~~~~~~~~~~~~~~~~~~~~~||
C||--3----5----0~~~~~~~~~~~~~~~~~~~~~~~~~~~~~~~~~~~~~~~~~~~~~~~~~~~||
G||o-1----3----0~~~~~~~~~~~~~~~~~~~~~~~~~~~~~~~~~~~~~~~~~~~~~~~~~~o||
C||------------0~~~~~~~~~~~~~~~~~~~~~~~~~~~~~~~~~~~~~~~~~~~~~~~~~~~||
Padge
D||---5-----5---3-----3-----3-----5-----5-----5-------5-------5----||
A||o----6---------5-----5-----5-----6-----6-----6---6---6---6---6-o||
F||-3-----3---3-----3-----3-----3-----3-----3-----3-------3--------||
C||----------------------------------------------------------------||
G||o--------------------------------------------------------------o||
C||----------------------------------------------------------------||
"My bed so cold, so lonely...
...No arms, just sheets to hold me"

Matt
D|----------------------------------------------------------------|
A|----------------------------------------------------------------|
F|-3----5----3~~~~~~~~~~~~~~~~~~~~~~~~~~~~~~~~~~~~~~~~~~~~~~~~~~~~|
C|-3----5----3~~~~~~~~~~~~~~~~~~~~~~~~~~~~~~~~~~~~~~~~~~~~~~~~~~~~|
G|-1----3----1~~~~~~~~~~~~~~~~~~~~~~~~~~~~~~~~~~~~~~~~~~~~~~~~~~~~|
C|----------------------------------------------------------------|
Padge
D|---5-----5---3-----3-----3-----8-----8-----8-------5-------5----|
A|-----6---------5-----5-----5-----6-----6-----6---6---6---6---6--|
F|-3-----3---3-----3-----3-----3-----5-----5-----3-------3--------|
C|----------------------------------------------------------------|
G|----------------------------------------------------------------|
C|----------------------------------------------------------------|
"Has this world stopped turning"

Matt
D|---------------------------------------------------------------|
A|---------------------------------------------------------------|
F|-3----5--------------------------------------------3----5------|
C|-3----5----0~~~~~~~~~~~~~~~~~~~~~~~~~~~~~~~~~~~~~~-3----5----3-|
G|-1----3----0~~~~~~~~~~~~~~~~~~~~~~~~~~~~~~~~~~~~~~-1----3----3-|
C|-----------0~~~~~~~~~~~~~~~~~~~~~~~~~~~~~~~~~~~~~~-----------3-|
Padge
D|---5-----5---3-----3-----3-----5-----5-----5-------5-------5---|
A|-----6---------5-----5-----5-----6-----6-----6---6---6---6---6-|
F|-3-----3---3-----3-----3-----3-----3-----3-----3-------3-------|
C|---------------------------------------------------------------|
G|---------------------------------------------------------------|
C|---------------------------------------------------------------|
"Are we forever to be apart...               Forever to be apart"

Matt
D|-----------------------------------------------------------|
A|---6-----6---5-----5-----5-----6-----6-----6-------6-----6-|
F|-----5---------5-----5-----5-----5-----5-----5---5---5---5-|
C|-3-----3---3-----3-----3-----3-----3-----3-----3-------3---|
G|-----------------------------------------------------------|
C|-----------------------------------------------------------|
Padge
D|---5-----5---3-----3-----3-----5-----5-----5-------5-----5-|
A|-----6---------5-----5-----5-----6-----6-----6---6---6---6-|
F|-3-----3---3-----3-----3-----3-----3-----3-----3-------3---|
C|-----------------------------------------------------------|
G|-----------------------------------------------------------|
C|-----------------------------------------------------------|


-Pre Chorus-
Matt & Padge
D|-------------------------------------------------------|
A|-------------------------------------------------------|
F|-3-3-3-3-3-3-3-3-3-3-3-3--3-5--7-7-7-7-7-7-7-7-7-7-7-7-|
C|-3-3-3-3-3-3-3-3-3-3-3-3--3-5--7-7-7-7-7-7-7-7-7-7-7-7-|
G|-1-1-1-1-1-1-1-1-1-1-1-1--1-3--5-5-5-5-5-5-5-5-5-5-5-5-|
C|-------------------------------------------------------|
"It hurts... wounds so sore

D|----------------------------------------------------------|
A|----------------------------------------------------------|
F|-5--3-3-3-3-3-3-3-3-3-3-3-3--2-3--5-5-5-5-5-5-5-5-5-5-5-5-|
C|-5--3-3-3-3-3-3-3-3-3-3-3-3--2-3--5-5-5-5-5-5-5-5-5-5-5-5-|
G|-3--1-1-1-1-1-1-1-1-1-1-1-1--0-1--3-3-3-3-3-3-3-3-3-3-3-3-|
C|----------------------------------------------------------|
...Now I'm torn... now I'm torn

D||------------------------------------------------------------------||-----|
A||o----------------------------------------------------------------o||-----|
F||--3-5--7-7-7-7-7-7-7-7--3-3-3-3-3-3-3-3--5-5-5-5-5-5-5-5-5-5-5-5--||-3-5-|
C||--3-5--7-7-7-7-7-7-7-7--3-3-3-3-3-3-3-3--5-5-5-5-5-5-5-5-5-5-5-5--||-3-5-|
G||o-1-3--5-5-5-5-5-5-5-5--1-1-1-1-1-1-1-1--3-3-3-3-3-3-3-3-3-3-3-3-o||-1-3-|
C||------------------------------------------------------------------||-----|
...I've been far awaay
-When I see your face"
	`

-Chorus-
D|----------------------------------------------------------------|
A|----------------------------------------------------------------|
F|-7-7-7-7-7-7-7-7--3-3-3-3-3-3-3-3--5-5-5-5-5-5-5-5-5-5-5-5--3-5-|
C|-7-7-7-7-7-7-7-7--3-3-3-3-3-3-3-3--5-5-5-5-5-5-5-5-5-5-5-5--3-5-|
G|-5-5-5-5-5-5-5-5--1-1-1-1-1-1-1-1--3-3-3-3-3-3-3-3-3-3-3-3--1-3-|
C|----------------------------------------------------------------|
"My Hearts Burst Into Fire...

D|----------------------------------------------------------------------------|
A|----------------------------------------------------------------------------|
F|-7-7-7-7-7-7-7-7--3-3-3-3-3-3-3-3--5-5-5-5-5-5-5-5-5-5-5-5------------------|
C|-7-7-7-7-7-7-7-7--3-3-3-3-3-3-3-3--5-5-5-5-5-5-5-5-5-5-5-5--7-7-7-7-7-7-7-7-|
G|-5-5-5-5-5-5-5-5--1-1-1-1-1-1-1-1--3-3-3-3-3-3-3-3-3-3-3-3--3-3-3-3-3-3-3-3-|
C|----------------------------------------------------------------------------|
...Hearts Burst Into Fire"


-Interlude-
Matt
D|-3~~~~~~~~~~~~~~~~~~~~~~~~~~~~~~~~~~~~~~~~~~~~~~~|
A|-6~~~~~~~~~~~~~~~~~~~~~~~~~~~~~~~~~~~~~~~~~~~~~~~|
F|-5~~~~~~~~~~~~~~~~~~~~~~~~~~~~~~~~~~~~~~~~~~~~~~~|
C|-3~~~~~~~~~~~~~~~~~~~~~~~~~~~~~~~~~~~~~~~~~~~~~~~|
G|-3~~~~~~~~~~~~~~~~~~~~~~~~~~~~~~~~~~~~~~~~~~~~~~~|
C|-3~~~~~~~~~~~~~~~~~~~~~~~~~~~~~~~~~~~~~~~~~~~~~~~|
Padge
D|-/13-12-----------------/13-12-------------------|
A|--------13---------------------13----------------|
F|-----------12-10-9-10~~-----------12-10-9-10~~~~-|
C|-------------------------------------------------|
G|-------------------------------------------------|
C|-------------------------------------------------|

Matt
D|---------------------------------------------------|
A|---------------------------------6-----------------|
F|-------------------------5-5-5-5-5-----------------|
C|-------------3-3-3-3-3-3-3-3-3-3-3-----------------|
G|-----3-3-3-3-3-3-3-3-3-3-3-3-3-3-3-----------------|
C|-3-3-3-3-3-3-3-3-3-3-3-3-3-3-3-3-3-----------------|
Padge
D|-/13-12-----------------/13-12---------------------|
A|--------13---------------------13------------------|
F|-----------12-10-9-10~~-----------12-10-9-12br-10~-|
C|---------------------------------------------------|
G|---------------------------------------------------|
C|---------------------------------------------------|

Matt & Padge
D|-------------------------------------------------------|
A|-6--6-6-6-6--6-5--5-5-5-5--5-6--6-6-6-6--6-5--5-5--5-6-|
F|-5--5-5-5-5--5-5--5-5-5-5--5-5--5-5-5-5--5-5--5-5--5-5-|
C|-3--3-3-3-3--3-3--3-3-3-3--3-3--3-3-3-3--3-3--3-3--3-3-|
G|-3--3-3-3-3--3-3--3-3-3-3--3-3--3-3-3-3--3-3--3-3--3-3-|
C|-3--3-3-3-3--3-3--3-3-3-3--3-3--3-3-3-3--3-3--3-3--3-3-|

D|-5--5-5-5-5--5-3--3-3-3-3--3-5--5-5-5-5--5--3--5--3--5-|
A|-6--6-6-6-6--6-5--5-5-5-5--5-6--6-6-6-6--6--5--6--5--6-|
F|-3--3-3-3-3--3-3--3-3-3-3--3-3--3-3-3-3--3--3--3--3--3-|
C|-0--0-0-0-0--0-0--0-0-0-0--0-0--0-0-0-0--0--0--0--0--0-|
G|-0--0-0-0-0--0-0--0-0-0-0--0-0--0-0-0-0--0--0--0--0--0-|
C|-0--0-0-0-0--0-0--0-0-0-0--0-0--0-0-0-0--0--0--0--0--0-|
"...Mmmmhm remember me at all?

D|-------------------------------------------------------|
A|-6--6-6-6-6--6-5--5-5-5-5--5-6--6-6-6-6--6-5--5-5--5-6-|
F|-5--5-5-5-5--5-5--5-5-5-5--5-5--5-5-5-5--5-5--5-5--5-5-|
C|-3--3-3-3-3--3-3--3-3-3-3--3-3--3-3-3-3--3-3--3-3--3-3-|
G|-3--3-3-3-3--3-3--3-3-3-3--3-3--3-3-3-3--3-3--3-3--3-3-|
C|-3--3-3-3-3--3-3--3-3-3-3--3-3--3-3-3-3--3-3--3-3--3-3-|
...I'm leavin', I'm screamin'

D|-5--5-5-5-5--5-3--3-3-3-3--3-5--5-5-5-5-5-5-5-5-5-|
A|-6--6-6-6-6--6-5--5-5-5-5--5-6--6-6-6-6-6-6-6-6-6-|
F|-3--3-3-3-3--3-3--3-3-3-3--3-3--3-3-3-3-3-3-3-3-3-|
C|-0--0-0-0-0--0-0--0-0-0-0--0-0--0-0-0-0-0-0-0-0-0-|
G|-0--0-0-0-0--0-0--0-0-0-0--0-0--0-0-0-0-0-0-0-0-0-|
C|-0--0-0-0-0--0-0--0-0-0-0--0-0--0-0-0-0-0-0-0-0-0-|
...I'm dreamin'"

D|--------------------------------------------------|
A|-------3~~~~~~~~~~~~~~~~~~~~~~~~~~~~~~~~~~~~~~~~~~|
F|-3--5--2~~~~~~~~~~~~~~~~~~~~~~~~~~~~~~~~~~~~~~~~~~|
C|-3--5--0~~~~~~~~~~~~~~~~~~~~~~~~~~~~~~~~~~~~~~~~~~|
G|-1--3--0~~~~~~~~~~~~~~~~~~~~~~~~~~~~~~~~~~~~~~~~~~|
C|-------0~~~~~~~~~~~~~~~~~~~~~~~~~~~~~~~~~~~~~~~~~~|
Related for Hearts Burst Into Fire Acoustic tab