Guitaretab - guitar tabs
Song name
# A B C D E F G H I J K L M N O P Q R S T U V W X Y Z

Bullet For My Valentine - Forever And Always tab

Bullet for my valentine
Forever and Always
Scream Aim Fire
2008
Submitted by: paramore_fans@yahoo.com

Key: C

Tuning: Standard EADGBe

Chords used:
C -  x32010
G -  320003
Am - x02210
F -  133211


Intro:

Matt:
                        C   Am  F
E|--------------------|---|---|---|
G|--------------------|-5-|-2-|---|
D|--2--0--------0h2p0-|-5-|-2-|-3-|
A|--------3--2--------|-3-|-0-|-3-|
E|--------------------|---|---|-1-|

         C                 Am                F
e|-----------------|-----------------|-----------------|
B|-----------------|-----------------|-----------------|
G|-5-5-5-5-5-5-5-5-|-2-2-2-2-2-2-2-2-|-----------------|
D|-5-5-5-5-5-5-5-5-|-2-2-2-2-2-2-2-2-|-3-3-3-3-3-3-3-3-| x3
A|-3-3-3-3-3-3-3-3-|-0-0-0-0-0-0-0-0-|-3-3-3-3-3-3-3-3-|
E|-----------------|-----------------|-1-1-1-1-1-1-1-1-|


Padge:
                                 C
E|----------------------|----------------|
B|----------------------|-----1-----0----|
G|----------------------|---0-----0----0-|
D|---------------0h2p0--|----------------|
A|--3--2--0-------------|-3-----3----3---|
E|-----------3----------|----------------|

e|---------------------------|--------------------------|
B|--3--------1--------0h--1--|--------1--------0--------|
G|--------0--------0---------|-----0--------0--------0--|
D|---------------------------|--------------------------|
A|-----3--------3------------|--3--------3--------3-----|
E|---------------------------|--------------------------|

                                        Am
---------------------------|--------------------------|
--3--------1--------1p--0--|--------1--------0--------|
--------0--------0---------|--------------------------|
---------------------------|-----2--------2--------2--|
-----3--------3------------|--0--------0--------0-----|
---------------------------|--------------------------|

                                        F
---------------------------|--------------------------|
--3--------1--------0h--1--|--------1--------0--------|
---------------------------|--------------------------|
--------2--------2---------|--------------------------|
-----0--------0------------|-----3--------3--------3--|
---------------------------|--1--------1--------1-----|

                                        C
---------------------------|--------------------------|
--3--------1--------0h--1--|--------1--------0--------|
---------------------------|-----0--------0--------0--|
---------------------------|--------------------------|
--------3--------3---------|--3--------3--------3-----|
-----1--------1------------|--------------------------|

---------------------------|--------------------------|
--3--------1--------0h--1--|--------1--------0--------|
--------0--------0---------|-----0--------0--------0--|
---------------------------|--------------------------|
-----3--------3------------|--3--------3--------3-----|
---------------------------|--------------------------|
[ Tab from: http://www.guitaretab.com/b/bullet-for-my-valentine/187523.html ]
                                        Am
---------------------------|--------------------------|
--3--------1--------1p--0--|--------1--------0--------|
--------0--------0---------|--------------------------|
---------------------------|-----2--------2--------2--|
-----3--------3------------|--0--------0--------0-----|
---------------------------|--------------------------|

                                        F
---------------------------|--------------------------|
--3--------1--------0h--1--|--------1--------0--------|
---------------------------|--------------------------|
--------2--------2---------|--------------------------|
-----0--------0------------|-----3--------3--------3--|
---------------------------|--1--------1--------1-----|

                                        C
--------------------------|--------------------------|
--3--------1--------0--1--|--------1--------0--------|
--------------------------|-----0--------0--------0--|
--------------------------|--------------------------|
--------3--------3--------|--3--------3--------3-----|
-----1--------1-----------|--------------------------|

---------------------------|--------------------------|
--3--------1--------0h--1--|--------1--------0--------|
--------0--------0---------|-----0--------0--------0--|
---------------------------|--------------------------|
-----3--------3------------|--3--------3--------3-----|
---------------------------|--------------------------|

                                        Am
---------------------------|--------------------------|
--3--------1--------1p--0--|--------1--------0--------|
--------0--------0---------|--------------------------|
---------------------------|-----2--------2--------2--|
-----3--------3------------|--0--------0--------0-----|
---------------------------|--------------------------|

                                        F
---------------------------|--------------------------|
--3--------1--------0h--1--|--------1--------0--------|
---------------------------|--------------------------|
--------2--------2---------|--------------------------|
-----0--------0------------|-----3--------3--------3--|
---------------------------|--1--------1--------1-----|

E|----------------------|
B|----------------------|
G|----------------------|
D|---------------0h2p0--|
A|--3--2--0-------------|
E|-----------3----------|


Verse 1:
C
  Our time is here again prepare to
   Am           G
be apart and it drives you crazy
C
  Each time I go away the distance
     Am            G
gets longer but it makes us stronger


Refrain:
F                             C
  Should it all come crashing down around me?
F                              G
  Would you be there should I stumble
and fall pick up the pieces


Chorus:
C
  Woo-oh-oh care about
the shit that
           Am
weve been through I
want to stay here
   F
forever and always
C
  Woo-oh-oh standing here
                   Am
in front of all of you I
want to stay here
   F
forever and always


Verse 2:
C
  These days are dead again its empty
     Am               G
from the start and it drives me crazy
C
  The hours drift away it hurts to
 Am                G
remember this will soon be over


(Repeat Refrain and Chorus)


Guitar Solo: Repeat Intro


Outro: Just Like Intro but Only Padge will do
Related for Forever And Always tab