Song name
# A B C D E F G H I J K L M N O P Q R S T U V W X Y Z

Bullet For My Valentine - Waking The Demon tab

Help us improve GuitareTab! Take a short survey!
Waking The Demon
Bullet For My Valentine
Scream Aim Fire
Drop C- CGCFAD

-Intro-
Matt
D|--------------------------------------------------------------|
A|--------------------------------------------------------------|
F|--------------------------------------------------------------|
C|--------------------------------------------------------------|
G|---------5p4-----7p4---------------------5p4-----7p4----------|
C|-4-4-4-4-----4-4-----4-4-5p4-7p4-4-4-4-4-----4-4-----4-4-5~-7-|
   pm- - -     - -     - -         - - - -     - -     - -
Padge
D|--------------------------------------------------------------|
A|--------------------------------------------------------------|
F|--------------------------------------------------------------|
C|-4-------------------------------4-----------------------5~-7-|
G|-4-------------------------------4-----------------------5~-7-|
C|-4-------------------------------4-----------------------5~-7-|

Matt
D|-----------------------------------------------------------------|
A|-----------------------------------------------------------------|
F|-----------------------------------------------------------------|
C|-------------------------------------------------7p4-5p4---------|
G|---------5p4-----7p4---------------------5p4-------------7p4-5p4-|
C|-4-4-4-4-----4-4-----4-4-5p4-7p4-4-4-4-4-----4-4-----------------|
   - - - -     - -     - -         - - - -     - -
Padge
D|-----------------------------------------------------------------|
A|-----------------------------------------------------------------|
F|-----------------------------------------------------------------|
C|-4-------------------------------4-----------4-------------------|
G|-4-------------------------------4-----------4-------------------|
C|-4-------------------------------4-----------4-------------------|

Matt
D|--------------------------------------------------------------|
A|--------------------------------------------------------------|
F|--------------------------------------------------------------|
C|--------------------------------------------------------------|
G|---------5p4-----7p4---------------------5p4-----7p4----------|
C|-4-4-4-4-----4-4-----4-4-5p4-7p4-4-4-4-4-----4-4-----4-4-5~-7-|
   - - - -     - -     - -         - - - -     - -     - -
Padge
D|--------------------------------------------------------------|
A|--------------------------------------------------------------|
F|--------------------------------------------------------------|
C|-4~~~~~~~~~~~~~~~~~~~~~~~~~~~~~~~~~~~~~~~~~~~~~~~~~~~~~~~~~~~~|
G|-4~~~~~~~~~~~~~~~~~~~~~~~~~~~~~~~~~~~~~~~~~~~~~~~~~~~~~~~~~~~~|
C|-4~~~~~~~~~~~~~~~~~~~~~~~~~~~~~~~~~~~~~~~~~~~~~~~~~~~~~~~~~~~~|

Matt
D|-----------------------------------------------------------------|
A|-----------------------------------------------------------------|
F|-----------------------------------------------------------------|
C|-------------------------------------------------7p4-5p4---------|
G|---------5p4-----7p4---------------------5p4-------------7p4-5p4-|
C|-4-4-4-4-----4-4-----4-4-5p4-7p4-4-4-4-4-----4-4-----------------|
   - - - -     - -     - -         - - - -     - -
Padge
D|-----------------------------------------------------------------|
A|-----------------------------------------------------------------|
F|-----------------------------------------------------------------|
C|-4~~~~~~~~~~~~~~~~~~~~~~~~~~~~~~~~~~~~~~~~~~~~~~~~~~~~~~~~~~~~~~~|
G|-4~~~~~~~~~~~~~~~~~~~~~~~~~~~~~~~~~~~~~~~~~~~~~~~~~~~~~~~~~~~~~~~|
C|-4~~~~~~~~~~~~~~~~~~~~~~~~~~~~~~~~~~~~~~~~~~~~~~~~~~~~~~~~~~~~~~~|

Matt & Padge
D||---------------------------------------------------------------|
A||o--------------------------------------------------------------|
F||---------------------------------------------------------------|
C||---------------------------------------------------------------|
G||o---------5p4-----7p4---------------------5p4-----7p4----------|
C||--4-4-4-4-----4-4-----4-4-5p4-7p4-4-4-4-4-----4-4-----4-4-5~-7-|
     - - - -     - -     - -         - - - -     - -     - -
....."Ohh"
D|------------------------------------------------------------------||
A|-----------------------------------------------------------------o||
F|------------------------------------------------------------------||
C|-------------------------------------------------7p4-5p4----------||
G|---------5p4-----7p4---------------------5p4-------------7p4-5p4-o||
C|-4-4-4-4-----4-4-----4-4-5p4-7p4-4-4-4-4-----4-4------------------||x3
   - - - -     - -     - -         - - - -     - -

D|--------------------------|
A|--------------------------|
F|--------------------------|
C|-0~~~~~~~~~~~~~~~~~~~~~~~-|
G|-0~~~~~~~~~~~~~~~~~~~~~~~-|
C|-0~~~~~~~~~~~~~~~~~~~~~~~-|
     "Two! three! four!"

Matt
D|---------------------------------|
A|---------------------------------|
F|---------------------------------|
C|-7p4-5p4---------9p6-7p6---------|
G|---------7p4-5p4---------9p6-7p6-|
C|---------------------------------|
Padge
D|---------------------------------|
A|---------------------------------|
F|-----------------7p4-5p4---------|
C|-7p4-5p4-----------------7p4-5p4-|
G|---------7p4-5p4-----------------|
C|---------------------------------|


-Verse-
Matt & Padge
D||---------------------------------------------------------------|
A||o--------------------------------------------------------------|
F||---------------------------------------------------------------|
C||---------------------------------------------------------------|
G||o---------5p4-----7p4---------------------5p4-----7p4----------|
C||--4-4-4-4-----4-4-----4-4-5p4-7p4-4-4-4-4-----4-4-----4-4-5~-7-|
     - - - -     - -     - -         - - - -     - -     - -
-"(HELPLESS!!!!!!!!!!!!!) MY EYES ARE BLEEDING FROM...
-(TOOK WHAT WAS MINE!!!) DON'T TRY AND STOP ME FROM...

D|------------------------------------------------------------------||
A|-----------------------------------------------------------------o||
F|------------------------------------------------------------------||
C|-------------------------------------------------7p4-5p4----------||
G|---------5p4-----7p4---------------------5p4-------------7p4-5p4-o||
C|-4-4-4-4-----4-4-----4-4-5p4-7p4-4-4-4-4-----4-4------------------||
   - - - -     - -     - -         - - - -     - -
...THE FEAR THAT'S INSIDE!!! YOU SEALED YOUR DEMISE WHEN YOU
...AVENGING THIS WORLD!!! NO VOICE TO BE HEARD!!!"


-Chorus-
D||------------------------------------------------|
A||o-----------------------------------------------|
F||------------------------------------------------|
C||-----------------------------------------0~-2~~-|
G||o-5p4~~~~~~-5p4~~~~~~-4-4-4-4--5p4~~~~~--0~-2~~-|
C||------7p4~~-----7p4~~-4-4-4-4------7p4~--0~-2~~-|
                         - - - -
-"Waking The Demon!!!                       Where'd...
-Walking in shadows!!!                      Watch...

                                           Matt
D|---------------------------------------| |--------||
A|---------------------------------------| |-------o||
F|---------------------------------------| |--------||
C|---------------------------------------| |-/7--6~-||
G|-5p4~~~~~~-5p4~~~~~~-4-4-4-4--5p4~~~~~-| |-------o||
C|-----7p4~~-----7p4~~-4-4-4-4------7p4~-| |--------||
                       - - - -             Padge
...ya run to?                              |--------||
...the blood flow"                         |-------o||
                                           |--------||
                                           |-/11-9~-||
                                           |-------o||
                                           |--------||
Matt
D|----------------------------------------------------------------------------------------|
A|----------------------------------------------------------------------------------------|
F|----------------------------------------------------------------------------------------|
C|----------------------------------------------------------------------------------------|
G|-5555555555555555-777777777777-44444444-999999999999-12-12-12-12-12-12-11-11-11-11-9999-|
C|----------------------------------------------------------------------------------------|
Padge
D|---------------------------------------------------------------------------------------|
A|---------------------------------------------------------------------------------------|
F|---------------------------------------------------------------------------------------|
C|-4444444444444444-666666666666----------777777777777-11-11-11-11-11-11-9-9-9-9-7-7-7-7-|
G|-------------------------------44444444------------------------------------------------|
C|---------------------------------------------------------------------------------------|
"There's not much longer, don't try and fight. Your body's weakening, walk to the light...

Matt
D|------------------------------------------------------|
A|------------------------------------------------------|
F|------------------------------------------------------|
C|------------------------------------------------------|
G|-5555555555555555-777777777777-44444444-999999999999\-|
C|------------------------------------------------------|
Padge
D|------------------------------------------------------|
A|------------------------------------------------------|
F|------------------------------------------------------|
C|-4444444444444444-666666666666----------777777777777\-|
G|--------------------------------44444444--------------|
C|------------------------------------------------------|
...Those painful times so alone, so ashamed. I'm not coming back

THERE'S NOTHING TO GAIN!!"

Matt
D|---------|
A|---------|
F|---------|
C|---------|
G|-0-------|
C|-0--4*~~-|
   -
Padge
D|---------|
A|---------|
F|---------|
C|---------|
G|-0--4*~~-|
C|-0-------|
   -


-Verse-
Matt & Padge
D||---------------------------------------------------------------|
A||o--------------------------------------------------------------|
F||---------------------------------------------------------------|
C||---------------------------------------------------------------|
G||o---------5p4-----7p4---------------------5p4-----7p4----------|
C||--4-4-4-4-----4-4-----4-4-5p4-7p4-4-4-4-4-----4-4-----4-4-5~-7-|
     - - - -     - -     - -         - - - -     - -     - -
-"(CAUTION!!!!!!!!!!!!!) THERE'S JUST NO LIMITS TO...
-(FUCK WITH MY MIND!!!) THERE'S NOT ESCAPE FROM THIS...

D|------------------------------------------------------------------||
A|-----------------------------------------------------------------o||
F|------------------------------------------------------------------||
C|-------------------------------------------------7p4-5p4----------||
G|---------5p4-----7p4---------------------5p4-------------7p4-5p4-o||
C|-4-4-4-4-----4-4-----4-4-5p4-7p4-4-4-4-4-----4-4------------------||
   - - - -     - -     - -         - - - -     - -
...THE BOUNDARIES YOU PUSH!!! I WARNED YOU BUT STILL YOU JUST
...RAGE THAT I FEEL!!! NOTHING IS REAL!!!"


-Chorus-
D||------------------------------------------------|
A||o-----------------------------------------------|
F||------------------------------------------------|
C||-----------------------------------------0~-2~~-|
G||o-5p4~~~~~~-5p4~~~~~~-4-4-4-4--5p4~~~~~--0~-2~~-|
C||------7p4~~-----7p4~~-4-4-4-4------7p4~--0~-2~~-|
                         - - - -
-"Waking The Demon!!!                       Where'd...
-Walking in shadows!!!                      Watch...

                                           Matt
D|---------------------------------------| |--------||
A|---------------------------------------| |-------o||
F|---------------------------------------| |--------||
C|---------------------------------------| |-/7--6~-||
G|-5p4~~~~~~-5p4~~~~~~-4-4-4-4--5p4~~~~~-| |-------o||
C|-----7p4~~-----7p4~~-4-4-4-4------7p4~-| |--------||
                       - - - -             Padge
...ya run to?                              |--------||
...the blood flow"                         |-------o||
                                           |--------||
                                           |-/11-9~-||
                                           |-------o||
                                           |--------||
Matt
D|----------------------------------------------------------------------------------------|
A|----------------------------------------------------------------------------------------|
F|----------------------------------------------------------------------------------------|
C|----------------------------------------------------------------------------------------|
G|-5555555555555555-777777777777-44444444-999999999999-12-12-12-12-12-12-11-11-11-11-9999-|
C|----------------------------------------------------------------------------------------|
Padge
D|---------------------------------------------------------------------------------------|
A|---------------------------------------------------------------------------------------|
F|---------------------------------------------------------------------------------------|
C|-4444444444444444-666666666666----------777777777777-11-11-11-11-11-11-9-9-9-9-7-7-7-7-|
G|-------------------------------44444444------------------------------------------------|
C|---------------------------------------------------------------------------------------|
"There's not much longer, don't try and fight. Your body's weakening, walk to the light...

Matt
D|-----------------------------------------------------|
A|-----------------------------------------------------|
F|-----------------------------------------------------|
C|-----------------------------------------------------|
G|-5555555555555555-777777777777-44444444-999999999999-|
C|-----------------------------------------------------|
Padge
D|-----------------------------------------------------|
A|-----------------------------------------------------|
F|-----------------------------------------------------|
C|-4444444444444444-666666666666----------777777777777-|
G|-------------------------------44444444--------------|
C|-----------------------------------------------------|
...Those painful times so alone, so ashamed. I'm not coming back

Matt & Padge
D|---------------------------|
A|---------------------------|
F|---------------------------|
C|--pickscrape---------------|
G|-x\\\\\\\\\\\\\\\\\\\\\\\\-|
C|-x\\\\\\\\\\\\\\\\\\\\\\\\-|
...THERE'S NOTHING TO GAIN!!"


-Breakdown-
Matt
D|-------------------------------------------------------------------|
A|-------------------------------------------------------------------|
F|-------------------------------------------------------------------|
C|-0~~~~~~~~~~~~~~~~~-2~~~~~~~~~~~~~~~~~~~~~~-4~~~~~~~~~~~~~~~~4-4-4-|
G|-0~~~~~~~~~~~~~~~~~-2~~~~~~~~~~~~~~~~~~~~~~-4~~~~~~~~~~~~~~~~4-4-4-|
C|-0~~~~~~~~~~~~~~~~~-2~~~~~~~~~~~~~~~~~~~~~~-4~~~~~~~~~~~~~~~~4-4-4-|
Padge
D|-------------------------------------------------------------------|
A|-/10-9---9------/10-9---9-------/10-9---10---12---10---9---10------|
F|-------9---9~~~-------9---11~~~-------9----9----9----9---9----9~~~-|
C|-------------------------------------------------------------------|
G|-------------------------------------------------------------------|
C|-------------------------------------------------------------------|
"Breath for meeee (Don't wake me from this slumber)"

Matt
D|---------------------------------------------------------------------|
A|---------------------------------------------------------------------|
F|---------------------------------------------------------------------|
C|-0~~~~~~~~~~~~~~~~~-2~~~~~~~~~~~~~~~~~~~~~~-4~~~~~~~~~~~~~~~~~~4-4-4-|
G|-0~~~~~~~~~~~~~~~~~-2~~~~~~~~~~~~~~~~~~~~~~-4~~~~~~~~~~~~~~~~~~4-4-4-|
C|-0~~~~~~~~~~~~~~~~~-2~~~~~~~~~~~~~~~~~~~~~~-4~~~~~~~~~~~~~~~~~~4-4-4-|
Padge
D|---------------------------------------------------------------------|
A|-/10-9---9------/10-9---9-------/10-9---10---12---10---9---10--------|
F|-------9---9~~~-------9---11~~~-------9----9----9----9---9----9*~~~~-|
C|---------------------------------------------------------------------|
G|---------------------------------------------------------------------|
C|---------------------------------------------------------------------|
"Stay with meeee (Possesion taking over)"

Matt
D|-------------------------------------------------------------------|
A|-------------------------------------------------------------------|
F|-------------------------------------------------------------------|
C|-0~~~~~~~~~~~~~~~~~-2~~~~~~~~~~~~~~~~~~~~~~-4~~~~~~~~~~~~~~~~4-4-4-|
G|-0~~~~~~~~~~~~~~~~~-2~~~~~~~~~~~~~~~~~~~~~~-4~~~~~~~~~~~~~~~~4-4-4-|
C|-0~~~~~~~~~~~~~~~~~-2~~~~~~~~~~~~~~~~~~~~~~-4~~~~~~~~~~~~~~~~4-4-4-|
Padge
D|-------------------------------------------------------------------|
A|-/10-9---9------/10-9---9-------/10-9---10---12---10---9---10------|
F|-------9---9~~~-------9---11~~~-------9----9----9----9---9----9~~~-|
C|-------------------------------------------------------------------|
G|-------------------------------------------------------------------|
C|-------------------------------------------------------------------|
"Breath for meeee (Don't wake me from this slumber)"

Matt
D|-----------------------------------------------------------------|
A|-----------------------------------------------------------------|
F|-----------------------------------------------------------------|
C|-0~~~~~~~~~~~~~~~~~-2~~~~~~~~~~~~~~~~~~~~~~-4~~~~~~~~~~~~~~4-4-4-|
G|-0~~~~~~~~~~~~~~~~~-2~~~~~~~~~~~~~~~~~~~~~~-4~~~~~~~~~~~~~~4-4-4-|
C|-0~~~~~~~~~~~~~~~~~-2~~~~~~~~~~~~~~~~~~~~~~-4~~~~~~~~~~~~~~4-4-4-|
Padge
D|-----------------------------------------------------------------|
A|-/10-9---9------/10-9---9-------/10-9---10---12---10---9---10----|
F|-------9---9~~~-------9---11~~~-------9----9----9----9---9----9\-|
C|-----------------------------------------------------------------|
G|-----------------------------------------------------------------|
C|-----------------------------------------------------------------|
"Stay with meeee (Possesion taking over)"

Matt & Padge
D|--------------------------------------------------------------|
A|--------------------------------------------------------------|
F|--------------------------------------------------------------|
C|-4------------------------------------------------------------|
G|-4-----------4-4-4-4----------4-4-4-4----------4-4-4-4--------|
C|-4-----------4-4-4-4----------4-4-4-4----------4-4-4-4--------|
               - - - -          - - - -          - - - -
D||---------------------------------------------------||
A||o-------------------------------------------------o||
F||---------------------------------------------------||
C||---------------------------------------------------||
G||o-4-4-4-4-5p4-4-4-4-4-7p4-4-4-4-4-4-4-5p4-4-4-7p4-o||
C||--4-4-4-4-5p4-4-4-4-4-7p4-4-4-4-4-4-4-5p4-4-4-7p4--||
     - - - - -   - - - - -   - - - - - - -   - - -
D|-------------------------------------------------|
A|-------------------------------------------------|
F|-------------------------------------------------|
C|-------------------------------------------------|
G|-4-4-4-4-5p4-4-4-4-4-7p4-4-4-4-4-4-4-5p4-4-4-7p4-|
C|-4-4-4-4-5p4-4-4-4-4-7p4-4-4-4-4-4-4-5p4-4-4-7p4-|
   - - - - -   - - - - -   - - - - - -
D|-------------------------------------------------|
A|-------------------------------------------------|
F|-------------------------------------------------|
C|-------------------------------------------------|
G|-4-4-4-4-5p4-4-4-4-4-7p4-4-4-4-4-4-4-5p4-4-4-7p4-|
C|-4-4-4-4-5p4-4-4-4-4-7p4-4-4-4-4-4-4-5p4-4-4-7p4-|

"Whoa!!! TRAP!"

-Solo-
Padge
D|----------17b~~-17-21-16-17-16----------|
A|-17br~-14----------------------17-12~~~-|
F|----------------------------------------|
C|----------------------------------------|
G|----------------------------------------|
C|----------------------------------------|

D|-------------------------------------------------------------------------19b~-19-|
A|-/9-5-7-9-10-7-9-10-12-9-10-12-14-10-12-14-15-12-14-15-17-14-15-17-15-17---------|
F|---------------------------------------------------------------------------------|
C|---------------------------------------------------------------------------------|
G|---------------------------------------------------------------------------------|
C|---------------------------------------------------------------------------------|
                                  T     T     T     T     T     T     T     T
D|-17-19-17-16-17-16-14-16--------17p14-17p14-17p14-17p14-17p14-17p14-17p14-17p14-|
A|-------------------------14~~~--------------------------------------------------|
F|--------------------------------------------------------------------------------|
C|--------------------------------------------------------------------------------|
G|--------------------------------------------------------------------------------|
C|--------------------------------------------------------------------------------|
   T     T     T     T     T     T     T     T
D|-16p13-16p13-16p13-16p13-16p13-16p13-16p13-16p13-|
A|-------------------------------------------------|
F|-------------------------------------------------|
C|-------------------------------------------------|
G|-------------------------------------------------|
C|-------------------------------------------------|

D|-----------------------------------------------|
A|-----------------------------------------------|
F|-19-18-16-18-16-14-16-14-13-14-13-11-13-11-9b!-|
C|-----------------------------------------------|
G|-----------------------------------------------|
C|-----------------------------------------------|
Matt Under Solo
D||---------------------------------------------------------------|
A||o--------------------------------------------------------------|
F||---------------------------------------------------------------|
C||---------------------------------------------------------------|
G||o---------5p4-----7p4---------------------5p4-----7p4----------|
C||--4-4-4-4-----4-4-----4-4-5p4-7p4-4-4-4-4-----4-4-----4-4-5~-7-|
     - - - -     - -     - -         - - - -     - -     - -
D|------------------------------------------------------------------||
A|-----------------------------------------------------------------o||
F|------------------------------------------------------------------||
C|-------------------------------------------------7p4-5p4----------||
G|---------5p4-----7p4---------------------5p4-------------7p4-5p4-o||
C|-4-4-4-4-----4-4-----4-4-5p4-7p4-4-4-4-4-----4-4------------------||
   - - - -     - -     - -         - - - -     - -


-Solo 2-
Padge
D|-9p5---5-9p5-9p5---5-9p5-9p5---5-7p4---4-7p4-7p4---4-7p4-5p4---4-|
A|-----7-----------7-----------7-------5-----------5-----------5---|
F|-----------------------------------------------------------------|
C|-----------------------------------------------------------------|
G|-----------------------------------------------------------------|
C|-----------------------------------------------------------------|
Gtr 3
D|-12p9---9-12p9-12p9----9-12p9-12p9---9-10p7---7-10p7-10p7---7-10p7-8p7---7-|
A|-----10-------------10------------10--------9-------------9------------9---|
F|---------------------------------------------------------------------------|
C|---------------------------------------------------------------------------|
G|---------------------------------------------------------------------------|
C|---------------------------------------------------------------------------|

Padge
D|-12p9---9-12p9-12p9----9-12p9-12p9---9-7p4---4-7p4-7p4---4-7p4-5p4---4-|
A|-----10-------------10------------10-------5-----------5-----------5---|
F|-----------------------------------------------------------------------|
C|-----------------------------------------------------------------------|
G|-----------------------------------------------------------------------|
C|-----------------------------------------------------------------------|
Gtr 3
D|-17p13----13-17p13-17p13----13-17p13-17p13----13-10p7---7-10p7-10p7---7-10p7-8p7---7-|
A|-------15----------------15----------------15---------9-------------9------------9---|
F|-------------------------------------------------------------------------------------|
C|-------------------------------------------------------------------------------------|
G|-------------------------------------------------------------------------------------|
C|-------------------------------------------------------------------------------------|

Padge
D|-9p5---5-9p5-9p5---5-9p5-9p5---5-7p4---4-7p4-7p4---4-7p4-5p4---4-|
A|-----7-----------7-----------7-------5-----------5-----------5---|
F|-----------------------------------------------------------------|
C|-----------------------------------------------------------------|
G|-----------------------------------------------------------------|
C|-----------------------------------------------------------------|
Gtr 3
D|-12p9---9-12p9-12p9----9-12p9-12p9---9-10p7---7-10p7-10p7---7-10p7-8p7---7-|
A|-----10-------------10------------10--------9-------------9------------9---|
F|---------------------------------------------------------------------------|
C|---------------------------------------------------------------------------|
G|---------------------------------------------------------------------------|
C|---------------------------------------------------------------------------|

Padge
D|-12-9---9-12-9-12-9-----9-12-9-12-9---9-12~~~~~--------------------------|
A|-----10--------------10------------10------------------------------------|
F|-------------------------------------------------------------------------|
C|-------------------------------------------------------------------------|
G|-------------------------------------------------x\\\\\\\\\\\\\\\\\\\\\\-|
C|-------------------------------------------------x\\\\\\\\\\\\\\\\\\\\\\-|
Gtr 3
D|-17p13----13-17p13-17p13----13-17p13-17p13----13-17~~~~-|
A|-------15----------------15----------------15-----------|
F|--------------------------------------------------------|
C|--------------------------------------------------------|
G|--------------------------------------------------------|
C|--------------------------------------------------------|
Matt Under Solo 2
D|----------------------------------------------------------------------------------------|
A|----------------------------------------------------------------------------------------|
F|----------------------------------------------------------------------------------------|
C|----------------------------------------------------------------------------------------|
G|-5555555555555555-777777777777-44444444-999999999999-12-12-12-12-12-12-11-11-11-11-9999-|
C|----------------------------------------------------------------------------------------|

D|-----------------------------------------------------|
A|-----------------------------------------------------|
F|-----------------------------------------------------|
C|-----------------------------------------------------|
G|-5555555555555555-777777777777-44444444-999999999999-|
C|-----------------------------------------------------|


Matt
D|-------------------------------------------------------------------|
A|-------------------------------------------------------------------|
F|-------------------------------------------------------------------|
C|-0~~~~~~~~~~~~~~~~~-2~~~~~~~~~~~~~~~~~~~~~~-4~~~~~~~~~~~~~~~~4-4-4-|
G|-0~~~~~~~~~~~~~~~~~-2~~~~~~~~~~~~~~~~~~~~~~-4~~~~~~~~~~~~~~~~4-4-4-|
C|-0~~~~~~~~~~~~~~~~~-2~~~~~~~~~~~~~~~~~~~~~~-4~~~~~~~~~~~~~~~~4-4-4-|
Padge
D|-------------------------------------------------------------------|
A|-/10-9---9------/10-9---9-------/10-9---10---12---10---9---10------|
F|-------9---9~~~-------9---11~~~-------9----9----9----9---9----9~~~-|
C|-------------------------------------------------------------------|
G|-------------------------------------------------------------------|
C|-------------------------------------------------------------------|
"Breath for meeee (Don't wake me from this slumber)"

Matt
D|---------------------------------------------------------------------|
A|---------------------------------------------------------------------|
F|---------------------------------------------------------------------|
C|-0~~~~~~~~~~~~~~~~~-2~~~~~~~~~~~~~~~~~~~~~~-4~~~~~~~~~~~~~~~~~~4-4-4-|
G|-0~~~~~~~~~~~~~~~~~-2~~~~~~~~~~~~~~~~~~~~~~-4~~~~~~~~~~~~~~~~~~4-4-4-|
C|-0~~~~~~~~~~~~~~~~~-2~~~~~~~~~~~~~~~~~~~~~~-4~~~~~~~~~~~~~~~~~~4-4-4-|
Padge
D|---------------------------------------------------------------------|
A|-/10-9---9------/10-9---9-------/10-9---10---12---10---9---10--------|
F|-------9---9~~~-------9---11~~~-------9----9----9----9---9----9*~~~~-|
C|---------------------------------------------------------------------|
G|---------------------------------------------------------------------|
C|---------------------------------------------------------------------|
"Stay with meeee (Possesion taking over)"

Matt
D|-------------------------------------------------------------------|
A|-------------------------------------------------------------------|
F|-------------------------------------------------------------------|
C|-0~~~~~~~~~~~~~~~~~-2~~~~~~~~~~~~~~~~~~~~~~-4~~~~~~~~~~~~~~~~4-4-4-|
G|-0~~~~~~~~~~~~~~~~~-2~~~~~~~~~~~~~~~~~~~~~~-4~~~~~~~~~~~~~~~~4-4-4-|
C|-0~~~~~~~~~~~~~~~~~-2~~~~~~~~~~~~~~~~~~~~~~-4~~~~~~~~~~~~~~~~4-4-4-|
Padge
D|-------------------------------------------------------------------|
A|-/10-9---9------/10-9---9-------/10-9---10---12---10---9---10------|
F|-------9---9~~~-------9---11~~~-------9----9----9----9---9----9~~~-|
C|-------------------------------------------------------------------|
G|-------------------------------------------------------------------|
C|-------------------------------------------------------------------|
"Breath for meeee (Don't wake me from this slumber)"

Matt
D|-----------------------------------------------------------------|
A|-----------------------------------------------------------------|
F|-----------------------------------------------------------------|
C|-0~~~~~~~~~~~~~~~~~-2~~~~~~~~~~~~~~~~~~~~~~-4~~~~~~~~~~~~~~4-4-4-|
G|-0~~~~~~~~~~~~~~~~~-2~~~~~~~~~~~~~~~~~~~~~~-4~~~~~~~~~~~~~~4-4-4-|
C|-0~~~~~~~~~~~~~~~~~-2~~~~~~~~~~~~~~~~~~~~~~-4~~~~~~~~~~~~~~4-4-4-|
Padge
D|-----------------------------------------------------------------|
A|-/10-9---9------/10-9---9-------/10-9---10---12---10---9---10----|
F|-------9---9~~~-------9---11~~~-------9----9----9----9---9----9\-|
C|-----------------------------------------------------------------|
G|-----------------------------------------------------------------|
C|-----------------------------------------------------------------|
"Stay with meeee (Possesion taking over)"


Matt
D|--------------------------------------------------------------|
A|--------------------------------------------------------------|
F|--------------------------------------------------------------|
C|--------------------------------------------------------------|
G|---------5p4-----7p4---------------------5p4-----7p4----------|
C|-4-4-4-4-----4-4-----4-4-5p4-7p4-4-4-4-4-----4-4-----4-4-5~-7-|
   - - - -     - -     - -         - - - -     - -     - -
Padge
D|--------------------------------------------------------------|
A|--------------------------------------------------------------|
F|--------------------------------------------------------------|
C|-4-------------------------------4-----------------------5~-7-|
G|-4-------------------------------4-----------------------5~-7-|
C|-4-------------------------------4-----------------------5~-7-|

Matt & Padge
D|-------------------------------------------------|
A|-------------------------------------------------|
F|-------------------------------------------------|
C|-------------------------------------------------|
G|---------5p4-----7p4---------------------5p4-----|
C|-4-4-4-4-----4-4-----4-4-5p4-7p4-4-4-4-4-----4-4-|
   - - - -     - -     - -         - - - -     - -

Matt
D|---------------------------------|
A|---------------------------------|
F|---------------------------------|
C|-7p4-5p4---------9p6-7p6---------|
G|---------7p4-5p4---------9p6-7p6-|
C|---------------------------------|
Padge
D|---------------------------------|
A|---------------------------------|
F|-----------------7p4-5p4---------|
C|-7p4-5p4-----------------7p4-5p4-|
G|---------7p4-5p4-----------------|
C|---------------------------------|


"WAKING THE DEMON!!"


Matt & Padge
D|-----------|
A|-----------|
F|-----------|
C|---------4-|
G|-4-4-4-4-4-|
C|-4-4-4-4-4-|
   - - - -
Related for Waking The Demon tab