Song name
# A B C D E F G H I J K L M N O P Q R S T U V W X Y Z

Bullet For My Valentine - Disappear tab

Disappear
Bullet For My Valentine
Scream Aim Fire
D Tuning- DGCFAD

-Intro-
Matt
D||-------------------------------------------------------|
A||o------------------------------------------------------|
F||-------------------------------------------------------|
C||-------------------------------------------------------|
G||o------10--10p9---9--9h10-----------10--10p9---9--9h10-|
D||--0~-0----------0----------0--0~--0----------0---------|
        -          -                 -          -
Padge
D||-------------------------------------------------------|
A||o------------------------------------------------------|
F||-------------------------------------------------------|
C||-------9---9p7----7--7h9------------9---9p7----7--7h9--|
G||o------------------------------------------------------|
D||--0~-0----------0----------0--0~--0----------0---------|
        -          -                 -          -

Matt & Padge
D|-------------------------------------||
A|------------------------------------o||
F|---5~~~~~~~~~~~-------------7~~~~~~--||
C|---5~~~~~~~~~~~-x-5~~~~~~-x-7~~~~~~--||
G|---3~~~~~~~~~~~-x-5~~~~~~-x-5~~~~~~-o||
D|-0--------------x-3~~~~~~-x----------||

Matt
D|-------------------------------------------------------------------------------|
A|-------------------------------------------------------------------------------|
F|-------------------------------------------------------------------------------|
C|-2~~~~~~~~----9~~~-7~~~-5~~~~~~~~~~~~~~-----2~~~~----9~~~-7~~~-5~~~~~~~~~~~~~~-|
G|-2~~~~~~~~---10~~~-9~~~-3~~~~~~~~~~~~~~-----2~~~~---10~~~-9~~~-3~~~~~~~~~~~~~~-|
D|-0~~~~~~~~-0----------------------------0-0-0~~~~-0----------------------------|
             -                            - -       -
Padge
D|-------------------------------------------------------------------------------|
A|-------------------------------------------------------------------------------|
F|-------------------------------------------------------------------------------|
C|-2~~~~~~~~~~~~~~~~~~~~~~~~~~~~~~~~~~~~~-----2~~~~~~~~~~~~~~~~~~~~~~~~~~~~~~~~~-|
G|-2~~~~~~~~~~~~~~~~~~~~~~~~~~~~~~~~~~~~~-----2~~~~~~~~~~~~~~~~~~~~~~~~~~~~~~~~~-|
D|-0~~~~~~~~~~~~~~~~~~~~~~~~~~~~~~~~~~~~~-0-0-0~~~~~~~~~~~~~~~~~~~~~~~~~~~~~~~~~-|
                                          - -

Matt
D|-------------------|
A|-12br-10-12~-10--8-|
F|-------------------|
C|-------------------|
G|-------------------|
D|-------------------|
Padge
D|-------------------|
A|-15br-13-15~-13-12-|
F|-------------------|
C|-------------------|
G|-------------------|
D|-------------------|


-Verse-
D||-----------------------------------------------------------------------------|
A||o----------------------------------------------------------------------------|
F||-----------------------------------------------------------------------------|
C||--2~~~~~~~~----9~~~-7~~~-5~~~~~~~~~~~~~~--2~~~~----9~~~-7~~~-5~~~~~~~~~~~~~~-|
G||o-2~~~~~~~~---10~~~-9~~~-3~~~~~~~~~~~~~~--2~~~~---10~~~-9~~~-3~~~~~~~~~~~~~~-|
D||--0~~~~~~~~-0-----------------------------0~~~~-0----------------------------|
               -                                   -
-"Once again, the same things on your mind. Increasing pulse from what goes...
-...Will you pay for what you've done, hatred. Paybacks such a bitch, her vengeance...

Matt
D|--------------------||
A|-12br-10-12~-10--8-o||
F|--------------------||
C|--------------------||
G|-------------------o||
D|--------------------||
Padge
D|--------------------||
A|-15br-13-15~-13-12-o||
F|--------------------||
C|--------------------||
G|-------------------o||
D|--------------------||
...On inside.
...Haunts you"


-Pre Chorus-
Matt
D|---------------------------------------------------------------|
A|---------------------------------------------------------------|
F|---------------------------------------------------------------|
C|-7~~~~~~~~~~~~~~~~~~~~~--------5--5p4-----4--4h5---7~~~~~~~~~~-|
G|-5~~~~~~~~~~~~~~~~~~~~~-3~-3-3--------3-3--------3-5~~~~~~~~~~-|
D|---------------------------------------------------------------|
Padge                        - -        - -
D|---------------------------------------------------------------|
A|---------------------------------------------------------------|
F|---------------------------------------------------------------|
C|-7~~~~~~~~~~~~~~~~~~~~~--------2--2p0-----0--0h2---7~~~~~~~~~~-|
G|-5~~~~~~~~~~~~~~~~~~~~~-3~-3-3--------3-3--------3-5~~~~~~~~~~-|
D|---------------------------------------------------------------|
                             - -        - -
"So what's wrong tough guy, why the tears?

Matt & Padge
D|------------------------------------|
A|------------------------------------|
F|----------------------4-4-4-4-------|
C|--------------5-5-5-5-4-4-4-4-------|
G|-x\\\\\\\\\\\-5-5-5-5-2-2-2-2-------|
D|-x\\\\\\\\\\\-3-3-3-3---------0-0-0-|
                                - - -
...You drove me to this now you, Disappear"


-Chorus-
Matt
D||-------------------------------------------------------|
A||o------------------------------------------------------|
F||-------------------------------------------------------|
C||-------------------------------------------------------|
G||o------10--10p9---9--9h10-----------10--10p9---9--9h10-|
D||--0~-0----------0----------0--0~--0----------0---------|
        -          -                 -          -
Padge
D||-------------------------------------------------------|
A||o------------------------------------------------------|
F||-------------------------------------------------------|
C||-------9---9p7----7--7h9------------9---9p7----7--7h9--|
G||o------------------------------------------------------|
D||--0~-0----------0----------0--0~--0----------0---------|
        -          -                 -          -
"NOW ALL THOSE ACTS REPAID!! YOUR TURN TO BE AFRAID!!

Matt
D|--------------------------------------------------------------||
A|-------------------------------------------------------------o||
F|--------------------------------------------------------------||
C|----------5--5p4-----4--4h5---5-7-----5--5p4-----4--4h5---7~--||
G|---3~-3-3--------3-3--------3-3-5-5-5--------5-5--------5-5~-o||
D|-0------------------------------------------------------------||
   -    - -        - -        -     - -        - -        -
Padge
D|--------------------------------------------------------------||
A|-------------------------------------------------------------o||
F|-17-17-17-17-17-17-17-17-17-17-17-17-16-16-16-16-19-19-19-19--||
C|-x--x--x--x--x--x--x--x--x--x--x--x--x--x--x--x--x--x--x--x---||
G|-15-15-15-15-15-15-15-15-15-15-15-15-14-14-14-14-17-17-17-17-o||
D|--------------------------------------------------------------||
...Not longer almost done, Oh god just what have I become"

Matt
D|-------------------------------------------------------------------------------|
A|-------------------------------------------------------------------------------|
F|-------------------------------------------------------------------------------|
C|-2~~~~~~~~----9~~~-7~~~-5~~~~~~~~~~~~~~-----2~~~~----9~~~-7~~~-5~~~~~~~~~~~~~~-|
G|-2~~~~~~~~---10~~~-9~~~-3~~~~~~~~~~~~~~-----2~~~~---10~~~-9~~~-3~~~~~~~~~~~~~~-|
D|-0~~~~~~~~-0----------------------------0-0-0~~~~-0----------------------------|
             -                            - -       -
Padge
D|-------------------------------------------------------------------------------|
A|-------------------------------------------------------------------------------|
F|-------------------------------------------------------------------------------|
C|-2~~~~~~~~~~~~~~~~~~~~~~~~~~~~~~~~~~~~~-----2~~~~~~~~~~~~~~~~~~~~~~~~~~~~~~~~~-|
G|-2~~~~~~~~~~~~~~~~~~~~~~~~~~~~~~~~~~~~~-----2~~~~~~~~~~~~~~~~~~~~~~~~~~~~~~~~~-|
D|-0~~~~~~~~~~~~~~~~~~~~~~~~~~~~~~~~~~~~~-0-0-0~~~~~~~~~~~~~~~~~~~~~~~~~~~~~~~~~-|
                                          - -

Matt
D|-------------------|
A|-12br-10-12~-10--8-|
F|-------------------|
C|-------------------|
G|-------------------|
D|-------------------|
Padge
D|-------------------|
A|-15br-13-15~-13-12-|
F|-------------------|
C|-------------------|
G|-------------------|
D|-------------------|


-Verse-
D||-----------------------------------------------------------------------------|
A||o----------------------------------------------------------------------------|
F||-----------------------------------------------------------------------------|
C||--2~~~~~~~~----9~~~-7~~~-5~~~~~~~~~~~~~~--2~~~~----9~~~-7~~~-5~~~~~~~~~~~~~~-|
G||o-2~~~~~~~~---10~~~-9~~~-3~~~~~~~~~~~~~~--2~~~~---10~~~-9~~~-3~~~~~~~~~~~~~~-|
D||--0~~~~~~~~-0-----------------------------0~~~~-0----------------------------|
               -                                   -
-"Try to fight, you only make things worse. Screams of agony your...
-...Now your begging for you life, breathless. All the times I bled my vengeance...

Matt
D|--------------------||
A|-12br-10-12~-10--8-o||
F|--------------------||
C|--------------------||
G|-------------------o||
D|--------------------||
Padge
D|--------------------||
A|-15br-13-15~-13-12-o||
F|--------------------||
C|--------------------||
G|-------------------o||
D|--------------------||
...Final verse.
...Takes you"


-Pre Chorus-
Matt
D|---------------------------------------------------------------|
A|---------------------------------------------------------------|
F|---------------------------------------------------------------|
C|-7~~~~~~~~~~~~~~~~~~~~~--------5--5p4-----4--4h5---7~~~~~~~~~~-|
G|-5~~~~~~~~~~~~~~~~~~~~~-3~-3-3--------3-3--------3-5~~~~~~~~~~-|
D|---------------------------------------------------------------|
Padge                        - -        - -
D|---------------------------------------------------------------|
A|---------------------------------------------------------------|
F|---------------------------------------------------------------|
C|-7~~~~~~~~~~~~~~~~~~~~~--------2--2p0-----0--0h2---7~~~~~~~~~~-|
G|-5~~~~~~~~~~~~~~~~~~~~~-3~-3-3--------3-3--------3-5~~~~~~~~~~-|
D|---------------------------------------------------------------|
                             - -        - -
"So what's wrong tough guy, why the tears?

Matt & Padge
D|------------------------------------|
A|------------------------------------|
F|----------------------4-4-4-4-------|
C|--------------5-5-5-5-4-4-4-4-------|
G|-x\\\\\\\\\\\-5-5-5-5-2-2-2-2-------|
D|-x\\\\\\\\\\\-3-3-3-3---------0-0-0-|
                                - - -
...You drove me to this now you, Disappear"


-Chorus-
Matt
D||-------------------------------------------------------|
A||o------------------------------------------------------|
F||-------------------------------------------------------|
C||-------------------------------------------------------|
G||o------10--10p9---9--9h10-----------10--10p9---9--9h10-|
D||--0~-0----------0----------0--0~--0----------0---------|
        -          -                 -          -
Padge
D||-------------------------------------------------------|
A||o------------------------------------------------------|
F||-------------------------------------------------------|
C||-------9---9p7----7--7h9------------9---9p7----7--7h9--|
G||o------------------------------------------------------|
D||--0~-0----------0----------0--0~--0----------0---------|
        -          -                 -          -
"NOW ALL THOSE ACTS REPAID!! YOUR TURN TO BE AFRAID!!

Matt
D|--------------------------------------------------------------||
A|-------------------------------------------------------------o||
F|--------------------------------------------------------------||
C|----------5--5p4-----4--4h5---5-7-----5--5p4-----4--4h5---7~--||
G|---3~-3-3--------3-3--------3-3-5-5-5--------5-5--------5-5~-o||
D|-0------------------------------------------------------------||
   -    - -        - -        -     - -        - -        -
Padge
D|--------------------------------------------------------------||
A|-------------------------------------------------------------o||
F|-17-17-17-17-17-17-17-17-17-17-17-17-16-16-16-16-19-19-19-19--||
C|-x--x--x--x--x--x--x--x--x--x--x--x--x--x--x--x--x--x--x--x---||
G|-15-15-15-15-15-15-15-15-15-15-15-15-14-14-14-14-17-17-17-17-o||
D|--------------------------------------------------------------||
...Not longer almost done, Oh god just what have I become"


-Breakdown-
Matt
D|--------------------------------------------------------------|
A|--------------------------------------------------------------|
F|--------------------------------------------------------------|
C|-----4h5-4p0-----4h5-4p0----------4h5-4p0-----4h5-4p0---------|
G|-3~----------3-3---------3-3-3-2~---------------------------3-|
D|-------------------------------0~---------0-0---------0-0-0---|
               - -         - - -            - -         - - -
Padge
D|--------------------------------------------------------------|
A|--------------------------------------------------------------|
F|-5~~~~~~~~~~~~~~~~~~~~~~~~~~~---------------------------------|
C|-5~~~~~~~~~~~~~~~~~~~~~~~~~~~--2~~~~~~~~~~~~~~~~~~~~~~~~~~~---|
G|-3~~~~~~~~~~~~~~~~~~~~~~~~~~~3-2~~~~~~~~~~~~~~~~~~~~~~~~~~~-3-|
D|-------------------------------0~~~~~~~~~~~~~~~~~~~~~~~~~~~---|
                               -                              -
"Your sweetest dreams turn into tears. It's almost...

Matt
D|--------------------------------------------------------------|
A|--------------------------------------------------------------|
F|--------------------------------------------------------------|
C|----4h5-4p0-----4h5-4p0----------4h5-4p0-------7p0-5p0-4p0-5~-|
G|-3~---------3-3---------3-3-3-5~---------5-5-5----------------|
D|--------------------------------------------------------------|
              - -         - - -            - - -
Padge
D|--------------------------------------------------------------|
A|--------------------------------------------------------------|
F|-5~~~~~~~~~~~~~~~~~~~~~~~~~~~-7~~~~~~~~~~~~~~~~~~~~~~~~~~~~~~-|
C|-5~~~~~~~~~~~~~~~~~~~~~~~~~~~-7~~~~~~~~~~~~~~~~~~~~~~~~~~~~~~-|
G|-3~~~~~~~~~~~~~~~~~~~~~~~~~~~-5~~~~~~~~~~~~~~~~~~~~~~~~~~~~~~-|
D|--------------------------------------------------------------|
...Done. They're almost gone...

Matt
D|--------------------------------------------------------------|
A|--------------------------------------------------------------|
F|--------------------------------------------------------------|
C|-----4h5-4p0-----4h5-4p0----------4h5-4p0-----4h5-4p0---------|
G|-3~----------3-3---------3-3-3-2~---------------------------3-|
D|-------------------------------0~---------0-0---------0-0-0---|
               - -         - - -            - -         - - -
Padge
D|--------------------------------------------------------------|
A|--------------------------------------------------------------|
F|-5~~~~~~~~~~~~~~~~~~~~~~~~~~~---------------------------------|
C|-5~~~~~~~~~~~~~~~~~~~~~~~~~~~--2~~~~~~~~~~~~~~~~~~~~~~~~~~~---|
G|-3~~~~~~~~~~~~~~~~~~~~~~~~~~~3-2~~~~~~~~~~~~~~~~~~~~~~~~~~~-3-|
D|-------------------------------0~~~~~~~~~~~~~~~~~~~~~~~~~~~---|
                               -                              -
...Our darkest days, they fade away. It's almost...

Matt
D|---------------------------------------------------------------|
A|---------------------------------------------------------------|
F|---------------------------------------------------------------|
C|----4h5-4p0-----4h5-4p0----------4-4-4-4-5-5-5-5-9-9-9-9-7-7-7-|
G|-3~---------3-3---------3-3-3-5~-------------------------------|
D|---------------------------------------------------------------|
              - -         - - -
Padge
D|---------------------------------------------------------------|
A|---------------------------------------------------------------|
F|-5~~~~~~~~~~~~~~~~~~~~~~~~~~~----------------------------------|
C|-5~~~~~~~~~~~~~~~~~~~~~~~~~~~-7~-7-7-7-7-7-7-7-7-7-7-7-7-7-7-7-|
G|-3~~~~~~~~~~~~~~~~~~~~~~~~~~~-5~-5-5-5-5-5-5-5-5-5-5-5-5-5-5-5-|
D|---------------------------------------------------------------|
                                   - - - - - - - - - - - - - - -
...Done. They're almost gone."


-Solo-
Padge
D|-------------------------------------------------------------------------------|
A|-5~-88-77-10-10-88-12-12-10-10-13-13-12-12-15-15-13-13-17-17-15-15-19-19-17-17-|
F|-------------------------------------------------------------------------------|
C|-------------------------------------------------------------------------------|
G|-------------------------------------------------------------------------------|
D|-------------------------------------------------------------------------------|

D|----------------------------------------------------------|
A|-19-19br-19-17-------17-17~-19-19br-19-17-------17-17~-19-|
F|---------------19-19----------------------19-19-----------|
C|----------------------------------------------------------|
G|----------------------------------------------------------|
D|----------------------------------------------------------|

D|-17b~~~17-17-17-17-17-17-r--12-15p12----12-------------------------------|
A|-------------------------------------15----15p12-15p12----12-------15p12-|
F|-------------------------------------------------------14----14p12-------|
C|-------------------------------------------------------------------------|
G|-------------------------------------------------------------------------|
D|-------------------------------------------------------------------------|

D|----------------------------------------------------------------------|
A|----12----------------------------------------------------------------|
F|-14----14p12-14p12----12-------14p12----12----------------------------|
C|-------------------14----14p12-------14----14p12-14p12----12-------12-|
G|-------------------------------------------------------14----14p12----|
D|----------------------------------------------------------------------|

D|------------------------------------------------------------------|
A|------------------------------------------------------------------|
F|-----------------------------9~-9-9/11~-11-11/12~-12-12/14~-14-14-|
C|-----------------------------x--x-x-x---x--x--x---x--x--x---x--x--|
G|-14p12-14p12----12-----------7~-7-7//9~-9--9//10~-10-10/12~-12-12-|
D|-------------15----15p12-15---------------------------------------|

D|----------------------------------------------------------------17b~~~~~~~~~~~~~~~~~~~~~~~|
A|-------------------------------------------------------15h17h19---------------------------|
F|----------------------------12h14h16----------14h16h17------------------------------------|
C|-------------------12h14h16----------14h16h17---------------------------------------------|
G|----------12h14h15------------------------------------------------------------------------|
D|-12h14h15---------------------------------------------------------------------------------|
Matt Under Solo
D||----------------------------------------------|
A||o---------------------------------------------|
F||------------------------5~~~~~~~~~~~~~~~~~~~~-|
C||--2~~~~~~~~~~~~~~~~~~~~-5~~~~~~~~~~~~~~~~~~~~-|
G||o-2~~~~~~~~~~~~~~~~~~~~-3~~~~~~~~~~~~~~~~~~~~-|
D||--0~~~~~~~~~~~~~~~~~~~~-----------------------|

D|----------------------------------------------------||
A|---------------------------------------------------o||
F|---------------------------4~~~~~~~~~~~~~~~~~~~~----||
C|-x-5~~~~~~~~~~~~~~~~~~~~-x-4~~~~~~~~~~~~~~~~~~~~-x--||
G|-x-5~~~~~~~~~~~~~~~~~~~~-x-2~~~~~~~~~~~~~~~~~~~~-x-o||
D|-x-3~~~~~~~~~~~~~~~~~~~~-x-----------------------x--||

Matt
D|---------------------------------------------------|
A|---------------------------------------------------|
F|---------------------------------------------------|
C|-----------------9~~~-7~~~-5~~---------5~~---------|
G|-2--------------10~~~-9~~~-3~~---------3~~-5~~-2~~-|
D|-0-/12\-0-0-0-0----------------0-0-0-0-----3~~-0~~-|
          - - - -                - - - -
Padge
D|---------------------------------------------------|
A|---------------------------------------------------|
F|---------------------------------------------------|
C|-2~~~~~~~~~~~~~~~~~~~~~~~~~~~~~~~~~~~~~~~~~~~~~~~~~|
G|-2~~~~~~~~~~~~~~~~~~~~~~~~~~~~~~~~~~~~~~~~~~~~~~~~~|
D|-0~~~~~~~~~~~~~~~~~~~~~~~~~~~~~~~~~~~~~~~~~~~~~~~~~|
"HEY!"

Matt
D|-----------------------------------------|
A|-----------------------------------------|
F|-----------------------------------------|
C|---------9~~-7~~-5~~~---------5~~-7~~-9\-|
G|--------10~~-9~~-3~~~---------3~~-5~~-7\-|
D|-0-0-0-0--------------0-0-0-0------------|
   - - - -              - - - -
Padge
D|-----------------------------------------|
A|-----------------------------------------|
F|-----------------------------------------|
C|~~~~~~~~~~~~~~~~~~~~~~~~~~~~~~~~~~~~~-9\-|
G|~~~~~~~~~~~~~~~~~~~~~~~~~~~~~~~~~~~~~-7\-|
D|~~~~~~~~~~~~~~~~~~~~~~~~~~~~~~~~~~~~~----|
"HEY!"

Matt & Padge
D|-------------------------------------------|
A|-------------------------------------------|
F|-------------------------------------------|
C|----------9~~-7~~-5~~~---------5~~---------|
G|---------10~~-9~~-3~~~---------3~~-5~~-2~~-|
D|-0-0-0-0---------------0-0-0-0-----3~~-0~~-|
   - - - -               - - - -
"HEY!"

D|---------------------------------------|
A|---------------------------------------|
F|---------------------------------------|
C|----------9~~-7~~-5~~~---------5~~-----|
G|---------10~~-9~~-3~~~---------3~~-5~~-|
D|-0-0-0-0---------------0-0-0-0-----3~~-|
   - - - -               - - - -
"HEY!"


-Pre Chorus-
Matt
D||-----------------------------------------------------||
A||o---------------------------------------------------o||
F||-----------------------------------------------------||
C||--7~~~~~~~~~~~~~~~~~~~~~--------5--5p4-----4--4h5----||
G||o-5~~~~~~~~~~~~~~~~~~~~~-3~-3-3--------3-3--------3-o||
D||-----------------------------------------------------||
Padge                          - -        - -            |x3
D||-----------------------------------------------------||
A||o---------------------------------------------------o||
F||-----------------------------------------------------||
C||--7~~~~~~~~~~~~~~~~~~~~~--------2--2p0-----0--0h2----||
G||o-5~~~~~~~~~~~~~~~~~~~~~-3~-3-3--------3-3--------3-o||
D||-----------------------------------------------------||
                               - -        - -
-"So what's wrong tough guy, why the tears?
-...You drove me to this now you, Disappear
-...So what's wrong tough guy, why the tears?"

Matt & Padge
D|---------------------------------------------------|
A|---------------------------------------------------|
F|-------------------------------------4-4-4-4-------|
C|-7~~~~~~~~~~~~~--------------5-5-5-5-4-4-4-4-------|
G|-5~~~~~~~~~~~~~-x\\\\\\\\\\\-5-5-5-5-2-2-2-2-------|
D|----------------x\\\\\\\\\\\-3-3-3-3---------0-0-0-|
                                               - - -
...You drove me to this now you, Disappear"


-Chorus-
Matt
D||-------------------------------------------------------|
A||o------------------------------------------------------|
F||-------------------------------------------------------|
C||-------------------------------------------------------|
G||o------10--10p9---9--9h10-----------10--10p9---9--9h10-|
D||--0~-0----------0----------0--0~--0----------0---------|
        -          -                 -          -
Padge
D||-------------------------------------------------------|
A||o------------------------------------------------------|
F||-------------------------------------------------------|
C||-------9---9p7----7--7h9------------9---9p7----7--7h9--|
G||o------------------------------------------------------|
D||--0~-0----------0----------0--0~--0----------0---------|
        -          -                 -          -
"NOW ALL THOSE ACTS REPAID!! YOUR TURN TO BE AFRAID!!

Matt
D|--------------------------------------------------------------||
A|-------------------------------------------------------------o||
F|--------------------------------------------------------------||
C|----------5--5p4-----4--4h5---5-7-----5--5p4-----4--4h5---7~--||
G|---3~-3-3--------3-3--------3-3-5-5-5--------5-5--------5-5~-o||
D|-0------------------------------------------------------------||
   -    - -        - -        -     - -        - -        -
Padge
D|--------------------------------------------------------------||
A|-------------------------------------------------------------o||
F|-17-17-17-17-17-17-17-17-17-17-17-17-16-16-16-16-19-19-19-19--||
C|-x--x--x--x--x--x--x--x--x--x--x--x--x--x--x--x--x--x--x--x---||
G|-15-15-15-15-15-15-15-15-15-15-15-15-14-14-14-14-17-17-17-17-o||
D|--------------------------------------------------------------||
...Not longer almost done, Oh god just what have I become"

Matt
D|-------------------------------------------------------------|
A|-------------------------------------------------------------|
F|-------------------------------------------------------------|
C|-------------------------------------------------------------|
G|------10--10p9---9--9h10-----------10--10p9---9--9h10--------|
D|-0~-0----------0----------0--0~--0----------0----------0--0~-|
      -          -                 -          -
Padge
D|-------------------------------------------------------------|
A|-------------------------------------------------------------|
F|-------------------------------------------------------------|
C|------9---9p7----7--7h9------------9---9p7----7--7h9---------|
G|-------------------------------------------------------------|
D|-0~-0----------0----------0--0~--0----------0----------0--0~-|
      -          -                 -          -

Matt
D|-----------------------------------------------------------------|
A|-----------------------------------------------------------------|
F|------12--12\11---11--11/12-----------12--12\11---11-11\9--7--9\-|
C|------x---x--x-----x---x-x------------x---x--x----x---x-x--x--x--|
G|------10--10\9-----9---9/10-----------10--10\9----9---9\7--5--7\-|
D|-0~-0-----------0------------0--0~--0-----------0----------------|
      -           -                   -           -
Padge
D|---------------------------------------------------------------|
A|------12--12\10---10--10/12-----------12--12\10---10\8---------|
F|------x----x-x-----x---x-x------------x----x-x-----x-x---------|
C|------9----9\7-----7---7/9------------9----9\7-----7\5-----2~~-|
G|--------------------------------------------------------2--2~~-|
D|-0~-0-----------0------------0--0~--0-----------0-------0--0~~-|
      -           -                   -           -
                                                   ...YEAH!
Tap to rate this tab
# A B C D E F G H I J K L M N O P Q R S T U V W X Y Z