Song name
# A B C D E F G H I J K L M N O P Q R S T U V W X Y Z

Bullet For My Valentine - End Of Days tab

End Of Days
Bullet For My Valentine
Scream Aim Fire
Drop C- CGCFAD

-Intro-
Matt & Padge
D|----------|
A|----------|
F|----------|
C|-0-0------|
G|-0-0-0000-|
C|-0-0-0000-|
   - - ----

Matt
D||---------------------------------------------------------------|
A||o--------------------------------------------------------------|
F||---------------------------------------------------------------|
C||-------8-----7-----------------------8-----7-------------------|
G||o-0~---------------8-----7---8---0---------------8-----5---7---|
C||--0~-0---0-0---0-0---0-0---0---0-0-0---0-0---0-0---0-0---0---0-|
        -   - -   - -   - -   -   -   -   - -   - -   - -   -   -
Padge
D||---------------------------------------------------------------|
A||o--------------------------------------------------------------|
F||-------7-----5-----------------------7-----5-------------------|
C||-------------------7-----5---7-------------------7---------5---|
G||o-0~-----------------------------0---------------------8-------|
C||--0~-0---0-0---0-0---0-0---0---0-0-0---0-0---0-0---0-0---0---0-|
        -   - -   - -   - -   -   -   -   - -   - -   - -   -   -

Matt
D|------------------------------------------------------------------||---|
A|-----------------------------------------------------------------o||---|
F|------------------------------------------------------------------||---|
C|------8-----7-------------------8~---12-8-10-8-7--7~---10-10-8-7--||-0-|
G|-0~---------------8-----7---8---8~----------------7~-------------o||-0-|
C|-0~-0---0-0---0-0---0-0---0---0-8~-8--------------7~-7------------||-0-|
      -   - -   - -   - -   -   -    -    - -  - -     -    -  - -
Padge
D|------------------------------------------------------------------||---|
A|-----------------------------------------------------------------o||---|
F|------7-----5------------------------10-7-9-7----------9--9--7-5--||---|
C|------------------7-----5---7---8~------------10--7~--------------||-0-|
G|-0~-----------------------------8~----------------7~-------------o||-0-|
C|-0~-0---0-0---0-0---0-0---0---0-8~-8--------------7~-7------------||-0-|
      -   - -   - -   - -   -   -    -    - - - -      -    -  - -

Matt
D|-----------------------|
A|-----------------------|
F|-----------------------|
C|-----------3h5\2--5-7\-|
G|------------------3-5\-|
C|---------0-------------|
Padge      -
D|-----------------------|
A|-----------------------|
F|-----------------------|
C|---5h7\3----------5-7\-|
G|------------------3-5\-|
C|-0---------------------|
   -

-Verse-
Matt
D|--------------------------------------------------------------------------|
A|--------------------------------------------------------------------------|
F|--------------------------------------------------------------------------|
C|--------------------5--3---------------------3--5-----------8-7-5---5-----|
G|--------------------3--1--1--1--1--1--1--1-1-1--3--3-3-3-3--------8---8-7-|
C|-0--0--0--0--0--0-0-------------------------------------------------------|
   -  -  -  -  -  - -       -  -  -  -  -  - -       - - - -  - - - - - - -
Padge
D|--------------------------------------------------------------------------|
A|--------------------------------------------------------------------------|
F|--------------------------------------------------------------------------|
C|---5h7\3~---3h5\2~--5--3----5h7\3~---3h5\2~--3--5----5h7\3--8-7-5---5-----|
G|--------------------3--1---------------------1--3-----------------8---8-7-|
C|-0--------0---------------0--------0---------------0----------------------|
   -        -               -        -               -        - - - - - - -
"We're wasting precious time. The clock is ticking, can you hear the countdown?

Matt
D|---------------------------------------------------------------------------|
A|---------------------------------------------------------------------------|
F|---------------------------------------------------------------------------|
C|---0~-----0~-----0~-5--7----0~-----0~----0~--5--3---------------------3--5-|
G|-0-0~--00-0~--00-0~-3--5--0-0~--00-0~-00-0~--3--1--1--1--1--1--1--1-1-1--3-|
C|-0-0~--00-0~--00-0~-------0-0~--00-0~-00-0~--------------------------------|
   -     --     --          -     --    --           -  -  -  -  -  - -
Padge
D|---------------------------------------------------------------------------|
A|---------------------------------------------------------------------------|
F|---------------------------------------------------------------------------|
C|---5h7\3~---3h5\2~--5--7----5h7\3~---3h5\2~--5--3----5h7\3~---3h5\2~--3--5-|
G|--------------------3--5---------------------3--1---------------------1--3-|
C|-0--------0---------------0--------0---------------0--------0--------------|
   -        -               -        -               -        -
...With every hour, give me the power. I need the strength to carry on...

Matt
D|------------------------|
A|------------------------|
F|------------------------|
C|----------8-7-5---5-----|
G|-3-3-3-3--------8---8-7-|
C|------------------------|
   - - - -  - - - - - - -
Padge
D|------------------------|
A|------------------------|
F|------------------------|
C|---5h7\3--8-7-5---5-----|
G|----------------8---8-7-|
C|-0----------------------|
   -        - - - - - - -
...On and on"


-Pre Chorus-
Matt
D|-----------------------------------------------------------------|
A|-----------------------------------------------------------------|
F|-----------------------------------------------------------------|
C|-3-3-3-3-3-3-3-3-3-3-3-3-3-3-3-3-3-3-3-3-3-3-3-3-3-3-3-3-3-3-3-3-|
G|-1-1-1-1-1-1-1-1-1-1-1-1-1-1-1-1-1-1-1-1-1-1-1-1-1-1-1-1-1-1-1-1-|
C|-----------------------------------------------------------------|
Padge
D|-----------------------------------------------------------------|
A|-----------------------------------------------------------------|
F|-----------------10-10-10-10-9-9-9-9-----------------------------|
C|-8-8-8-8-8-8-8-8-8--8--8--8--8-8-8-8-10-10-10-10-8-8-8-8-8-8-8-8-|
G|-8-8-8-8-8-8-8-8-8--8--8--8--8-8-8-8-8--8--8--8--8-8-8-8-8-8-8-8-|
C|-8-8-8-8-8-8-8-8-8--8--8--8--8-8-8-8-8--8--8--8--8-8-8-8-8-8-8-8-|
"No more I care to live, when I'm just born to die...

Matt
D|------------------------------------------------------------------|
A|------------------------------------------------------------------|
F|------------------------------------------------------------------|
C|-0~-------------------------------0~------------------------------|
G|-0~--0-0----------0-0----------0--0~--0-0----------0-0----------0-|
C|-0~--0-0----------0-0----------0--0~--0-0----------0-0----------0-|
       - -          - -          -      - -          - -          -
Padge
D|------------------------------------------------------------------|
A|------------------------------------------------------------------|
F|------------------------------------------------------------------|
C|------------------------------------------------------------------|
G|----------10-------8-------7---------------10-------8-------7-----|
C|-0~-8-7-8----8-7-8---8-7-8---8-7--0~-8-7-8----8-7-8---8-7-8---8-7-|
      - - -    - - -   - - -   - -     - - -    - - -   - - -   - -
...WE'RE ALL BORN TO DIE!!! BORN TO DIE!!!...

Matt
D|-----------------------------------------------------------------|
A|-----------------------------------------------------------------|
F|-----------------------------------------------------------------|
C|-3-3-3-3-3-3-3-3-3-3-3-3-3-3-3-3-3-3-3-3-3-3-3-3-3-3-3-3-3-3-3-3-|
G|-1-1-1-1-1-1-1-1-1-1-1-1-1-1-1-1-1-1-1-1-1-1-1-1-1-1-1-1-1-1-1-1-|
C|-----------------------------------------------------------------|
Padge
D|-----------------------------------------------------------------|
A|-----------------------------------------------------------------|
F|-----------------10-10-10-10-9-9-9-9-----------------------------|
C|-8-8-8-8-8-8-8-8-8--8--8--8--8-8-8-8-10-10-10-10-8-8-8-8-8-8-8-8-|
G|-8-8-8-8-8-8-8-8-8--8--8--8--8-8-8-8-8--8--8--8--8-8-8-8-8-8-8-8-|
C|-8-8-8-8-8-8-8-8-8--8--8--8--8-8-8-8-8--8--8--8--8-8-8-8-8-8-8-8-|
...No more I care to live, when I'm just born to die...

Matt
D|---------------------------------------------------------|
A|---------------------------------------------------------|
F|---------------------------------------------------------|
C|-0~-------------------------------0~---------------------|
G|-0~--0-0----------0-0----------0--0~--0-0------0-0--0000-|
C|-0~--0-0----------0-0----------0--0~--0-0------0-0--0000-|
       - -          - -          -      - -      - -  ----
Padge
D|---------------------------------------------------------|
A|---------------------------------------------------------|
F|---------------------------------------------------------|
C|---------------------------------------------------------|
G|----------10-------8-------7---------------10--0-0--0000-|
C|-0~-8-7-8----8-7-8---8-7-8---8-7--0~-8-7-8-----0-0--0000-|
      - - -    - - -   - - -   - -     - - -     - -  ----
...WE'RE ALL BORN TO DIE!!!"


-Chorus-
Matt
D||-------------------------------------------------------------------------|
A||o------------------------------------------------------------------------|
F||-------------------------------------------------------------------------|
C||-------8-----7-----------------------8-----7--------5h7h8---------7h9h10-|
G||o-0~---------------8-----7---8---0------------5h7h8-------8h10h11--------|
C||--0~-0---0-0---0-0---0-0---0---0-0-0---0-0-------------------------------|
        -   - -   - -   - -   -   -   -   - -
Padge
D||-------------------------------------------------------------------------|
A||o------------------------------------------------------------------------|
F||-------7-----5-----------------------7-----5-----------------------------|
C||-------------------7-----5---7----------------------5h7h8---------7h9h10-|
G||o-0~-----------------------------0------------5h7h8-------8h10h11--------|
C||--0~-0---0-0---0-0---0-0---0---0-0-0---0-0-------------------------------|
        -   - -   - -   - -   -   -   -   - -
"(NEVER BEFORE! NEVER AGAIN!!!) Behold this travesty...

Matt
D|------------------------------------------------------------------||---|
A|-----------------------------------------------------------------o||---|
F|------------------------------------------------------------------||---|
C|------8-----7-------------------8~---12-8-10-8-7--7~---10-10-8-7--||-0-|
G|-0~---------------8-----7---8---8~----------------7~-------------o||-0-|
C|-0~-0---0-0---0-0---0-0---0---0-8~-8--------------7~-7------------||-0-|
      -   - -   - -   - -   -   -    -    - -  - -     -    -  - -
Padge
D|------------------------------------------------------------------||---|
A|-----------------------------------------------------------------o||---|
F|------7-----5------------------------10-7-9-7----------9--9--7-5--||---|
C|------------------7-----5---7---8~------------10--7~--------------||-0-|
G|-0~-----------------------------8~----------------7~-------------o||-0-|
C|-0~-0---0-0---0-0---0-0---0---0-8~-8--------------7~-7------------||-0-|
      -   - -   - -   - -   -   -    -    - - - -      -    -  - -
...(NEVER BEFORE! NEVER AGAIN!!!) Behold adversary"


Matt
D|-----------------------|
A|-----------------------|
F|-----------------------|
C|-----------3h5\2--5-7\-|
G|------------------3-5\-|
C|---------0-------------|
Padge      -
D|-----------------------|
A|-----------------------|
F|-----------------------|
C|---5h7\3----------5-7\-|
G|------------------3-5\-|
C|-0---------------------|
   -

-Verse-
Matt
D|--------------------------------------------------------------------------|
A|--------------------------------------------------------------------------|
F|--------------------------------------------------------------------------|
C|--------------------5--3---------------------3--5-----------8-7-5---5-----|
G|--------------------3--1--1--1--1--1--1--1-1-1--3--3-3-3-3--------8---8-7-|
C|-0--0--0--0--0--0-0-------------------------------------------------------|
   -  -  -  -  -  - -       -  -  -  -  -  - -       - - - -  - - - - - - -
Padge
D|--------------------------------------------------------------------------|
A|--------------------------------------------------------------------------|
F|--------------------------------------------------------------------------|
C|---5h7\3~---3h5\2~--5--3----5h7\3~---3h5\2~--3--5----5h7\3--8-7-5---5-----|
G|--------------------3--1---------------------1--3-----------------8---8-7-|
C|-0--------0---------------0--------0---------------0----------------------|
   -        -               -        -               -        - - - - - - -
"Befriend my enemies, My pulse is racing, I can hear my heart beat...

Matt
D|---------------------------------------------------------------------------|
A|---------------------------------------------------------------------------|
F|---------------------------------------------------------------------------|
C|---0~-----0~-----0~-5--7----0~-----0~----0~--5--3---------------------3--5-|
G|-0-0~--00-0~--00-0~-3--5--0-0~--00-0~-00-0~--3--1--1--1--1--1--1--1-1-1--3-|
C|-0-0~--00-0~--00-0~-------0-0~--00-0~-00-0~--------------------------------|
   -     --     --          -     --    --           -  -  -  -  -  - -
Padge
D|---------------------------------------------------------------------------|
A|---------------------------------------------------------------------------|
F|---------------------------------------------------------------------------|
C|---5h7\3~---3h5\2~--5--7----5h7\3~---3h5\2~--5--3----5h7\3~---3h5\2~--3--5-|
G|--------------------3--5---------------------3--1---------------------1--3-|
C|-0--------0---------------0--------0---------------0--------0--------------|
   -        -               -        -               -        -
...This is the last time, you get to be mine. I lack the will to carry on...

Matt
D|------------------------|
A|------------------------|
F|------------------------|
C|----------8-7-5---5-----|
G|-3-3-3-3--------8---8-7-|
C|------------------------|
   - - - -  - - - - - - -
Padge
D|------------------------|
A|------------------------|
F|------------------------|
C|---5h7\3--8-7-5---5-----|
G|----------------8---8-7-|
C|-0----------------------|
   -        - - - - - - -
...On and on"


-Pre Chorus-
Matt
D|-----------------------------------------------------------------|
A|-----------------------------------------------------------------|
F|-----------------------------------------------------------------|
C|-3-3-3-3-3-3-3-3-3-3-3-3-3-3-3-3-3-3-3-3-3-3-3-3-3-3-3-3-3-3-3-3-|
G|-1-1-1-1-1-1-1-1-1-1-1-1-1-1-1-1-1-1-1-1-1-1-1-1-1-1-1-1-1-1-1-1-|
C|-----------------------------------------------------------------|
Padge
D|-----------------------------------------------------------------|
A|-----------------------------------------------------------------|
F|-----------------10-10-10-10-9-9-9-9-----------------------------|
C|-8-8-8-8-8-8-8-8-8--8--8--8--8-8-8-8-10-10-10-10-8-8-8-8-8-8-8-8-|
G|-8-8-8-8-8-8-8-8-8--8--8--8--8-8-8-8-8--8--8--8--8-8-8-8-8-8-8-8-|
C|-8-8-8-8-8-8-8-8-8--8--8--8--8-8-8-8-8--8--8--8--8-8-8-8-8-8-8-8-|
"No more I care to live, when I'm just born to die...

Matt
D|------------------------------------------------------------------|
A|------------------------------------------------------------------|
F|------------------------------------------------------------------|
C|-0~-------------------------------0~------------------------------|
G|-0~--0-0----------0-0----------0--0~--0-0----------0-0----------0-|
C|-0~--0-0----------0-0----------0--0~--0-0----------0-0----------0-|
       - -          - -          -      - -          - -          -
Padge
D|------------------------------------------------------------------|
A|------------------------------------------------------------------|
F|------------------------------------------------------------------|
C|------------------------------------------------------------------|
G|----------10-------8-------7---------------10-------8-------7-----|
C|-0~-8-7-8----8-7-8---8-7-8---8-7--0~-8-7-8----8-7-8---8-7-8---8-7-|
      - - -    - - -   - - -   - -     - - -    - - -   - - -   - -
...WE'RE ALL BORN TO DIE!!! BORN TO DIE!!!...

Matt
D|-----------------------------------------------------------------|
A|-----------------------------------------------------------------|
F|-----------------------------------------------------------------|
C|-3-3-3-3-3-3-3-3-3-3-3-3-3-3-3-3-3-3-3-3-3-3-3-3-3-3-3-3-3-3-3-3-|
G|-1-1-1-1-1-1-1-1-1-1-1-1-1-1-1-1-1-1-1-1-1-1-1-1-1-1-1-1-1-1-1-1-|
C|-----------------------------------------------------------------|
Padge
D|-----------------------------------------------------------------|
A|-----------------------------------------------------------------|
F|-----------------10-10-10-10-9-9-9-9-----------------------------|
C|-8-8-8-8-8-8-8-8-8--8--8--8--8-8-8-8-10-10-10-10-8-8-8-8-8-8-8-8-|
G|-8-8-8-8-8-8-8-8-8--8--8--8--8-8-8-8-8--8--8--8--8-8-8-8-8-8-8-8-|
C|-8-8-8-8-8-8-8-8-8--8--8--8--8-8-8-8-8--8--8--8--8-8-8-8-8-8-8-8-|
...No more I care to live, when I'm just born to die...

Matt
D|---------------------------------------------------------|
A|---------------------------------------------------------|
F|---------------------------------------------------------|
C|-0~-------------------------------0~---------------------|
G|-0~--0-0----------0-0----------0--0~--0-0------0-0--0000-|
C|-0~--0-0----------0-0----------0--0~--0-0------0-0--0000-|
       - -          - -          -      - -      - -  ----
Padge
D|---------------------------------------------------------|
A|---------------------------------------------------------|
F|---------------------------------------------------------|
C|---------------------------------------------------------|
G|----------10-------8-------7---------------10--0-0--0000-|
C|-0~-8-7-8----8-7-8---8-7-8---8-7--0~-8-7-8-----0-0--0000-|
      - - -    - - -   - - -   - -     - - -     - -  ----
...WE'RE ALL BORN TO DIE!!!"


-Chorus-
Matt
D||-------------------------------------------------------------------------|
A||o------------------------------------------------------------------------|
F||-------------------------------------------------------------------------|
C||-------8-----7-----------------------8-----7--------5h7h8---------7h9h10-|
G||o-0~---------------8-----7---8---0------------5h7h8-------8h10h11--------|
C||--0~-0---0-0---0-0---0-0---0---0-0-0---0-0-------------------------------|
        -   - -   - -   - -   -   -   -   - -
Padge
D||-------------------------------------------------------------------------|
A||o------------------------------------------------------------------------|
F||-------7-----5-----------------------7-----5-----------------------------|
C||-------------------7-----5---7----------------------5h7h8---------7h9h10-|
G||o-0~-----------------------------0------------5h7h8-------8h10h11--------|
C||--0~-0---0-0---0-0---0-0---0---0-0-0---0-0-------------------------------|
        -   - -   - -   - -   -   -   -   - -
"(NEVER BEFORE! NEVER AGAIN!!!) Behold this travesty...

Matt
D|------------------------------------------------------------------||---|
A|-----------------------------------------------------------------o||---|
F|------------------------------------------------------------------||---|
C|------8-----7-------------------8~---12-8-10-8-7--7~---10-10-8-7--||-0-|
G|-0~---------------8-----7---8---8~----------------7~-------------o||-0-|
C|-0~-0---0-0---0-0---0-0---0---0-8~-8--------------7~-7------------||-0-|
      -   - -   - -   - -   -   -    -    - -  - -     -    -  - -
Padge
D|------------------------------------------------------------------||---|
A|-----------------------------------------------------------------o||---|
F|------7-----5------------------------10-7-9-7----------9--9--7-5--||---|
C|------------------7-----5---7---8~------------10--7~--------------||-0-|
G|-0~-----------------------------8~----------------7~-------------o||-0-|
C|-0~-0---0-0---0-0---0-0---0---0-8~-8--------------7~-7------------||-0-|
      -   - -   - -   - -   -   -    -    - - - -      -    -  - -
...(NEVER BEFORE! NEVER AGAIN!!!) Behold adversary"


-Breakdown-
Matt
D|-----------------------------------------------|
A|-----------------------------------------------|
F|-------------------------------------3--5--7~\-|
C|-------------------------------------3--5--7~\-|
G|-------------------------------------1--3--5~\-|
C|-----------------------------------------------|
Padge
D|-----------------------------------------------|
A|-----------------------------------------------|
F|-10-------10-------10-------10-------9----9----|
C|----12-12----12-12----12-12----12-12---10---10-|
G|-----------------------------------------------|
C|-----------------------------------------------|
      -  -     -  -     -  -     -  -    -    -

Matt
D|-----------------------------------------------|
A|-----------------------------------------------|
F|-------------------------------------7--5--3---|
C|-------------------------------------7--5--3---|
G|-------------------------------------5--3--1---|
C|-----------------------------------------------|
Padge
D|-----------------------------------------------|
A|-----------------------------------------------|
F|-10-------10-------10-------10-------9----9----|
C|----12-12----12-12----12-12----12-12---10---10-|
G|-----------------------------------------------|
C|-----------------------------------------------|
      -  -     -  -     -  -     -  -    -    -

Matt
D|------------------------------------------------8~~--6h8\5~--|
A|-------------------------------------------------------------|
F|-----------------------------3--5--2~~~~~~~------------------|
C|-----------------------------3--5--2~~~~~~~------------------|
G|-----------------------------1--3--0~~~~~~~------------------|
C|-------------------------------------------------------------|
Padge
D|-------------------------------------------------------------|
A|------------------------------------------------10~~-8h10\6~-|
F|-7-----7-----7-----7-----7---7---6-----6-----6---------------|
C|---8-8---8-8---8-8---8-8---8---8---7-7---7-7-----------------|
G|-------------------------------------------------------------|
C|-------------------------------------------------------------|
     - -   - -   - -   - -   -   -   - -   - -

Matt
D||-----------------------------------------------||
A||o---------------------------------------------o||
F||-----------------------------------------------||
C||-----------------------------------------------||
G||o-0-0-----0-0-----0-0-----0-0-----0-0-----0-0-o||
C||--0-0-----0-0-----0-0-----0-0-----0-0-----0-0--||
     - -     - -     - -     - -     - -     - -
Padge
D||-----------------------------------------------||
A||o---------------------------------------------o||
F||-10-------10-------10-------10-------9----9----||
C||----12-12----12-12----12-12----12-12---10---10-||
G||o---------------------------------------------o||
C||-----------------------------------------------||
       -  -     -  -     -  -     -  -    -    -
Gtr 3
D||-----------------------------------------------||
A||o-10-------10-------10-------10-------8----8--o||
F||-----10-10----10-10----10-10----10-10---9----9-||
C||-----------------------------------------------||
G||o---------------------------------------------o||
C||-----------------------------------------------||
        -  -     -  -     -  -     -  -    -    -
"NO MORE SORROW!!! (NO TOMORROW!!!)

Matt
D|-------------------------------------------------------------|
A|-------------------------------------------------------------|
F|-------------------------------------------------------------|
C|-3-3----3-3----3-3----3-3----3-3----3-3----2-2----2-2----2-2-|
G|-1-1----1-1----1-1----1-1----1-1----1-1----0-0----0-0----0-0-|
C|-------------------------------------------------------------|
   - -    - -    - -    - -    - -    - -    - -    - -    - -
Padge
D|-------------------------------------------------------------|
A|------------------------------------------------10~~-8h10\6~-|
F|-7-----7-----7-----7-----7---7---6-----6-----6---------------|
C|---8-8---8-8---8-8---8-8---8---8---7-7---7-7-----------------|
G|-------------------------------------------------------------|
C|-------------------------------------------------------------|
     - -   - -   - -   - -   -   -   - -   - -
Gtr 3
D|--------------------------------------------------8~~-6h8\5~-|
A|-------------------------------------------------------------|
F|-10-------10-------10-------10-------9----9----9-------------|
C|----10-10----10-10----10-10----10-10---10---10---------------|
G|-------------------------------------------------------------|
C|-------------------------------------------------------------|
      -  -     -  -     -  -     -  -    -    -
...I'VE NEVER ALIVE BEFORE! YEEAAAAAAAAAAAAH!"

Matt
D||-----------------------------------------------||
A||o---------------------------------------------o||
F||-----------------------------------------------||
C||--------------------------------------10\7~~~--||
G||o--------------------------------------8\5~~~-o||
C||--0--0--0--0--0--0--0--0--0--0--0--0-----------||
     -  -  -  -  -  -  -  -  -  -  -  -
Padge
D||-----------------------------------------------||
A||o---------------------------------------------o||
F||-10-------10-------10-------10-------9----9----||
C||----12-12----12-12----12-12----12-12---10---10-||
G||o---------------------------------------------o||
C||-----------------------------------------------||
       -  -     -  -     -  -     -  -    -    -
Gtr 3
D||-----------------------------------------------||
A||o-10-------10-------10-------10-------8----8--o||
F||-----10-10----10-10----10-10----10-10---9----9-||
C||-----------------------------------------------||
G||o---------------------------------------------o||
C||-----------------------------------------------||
        -  -     -  -     -  -     -  -    -    -

Matt
D|-------------------------------------------------------------|
A|-------------------------------------------------------------|
F|-------------------------------------------------------------|
C|----------------------------------3~----------------------2~-|
G|-1--1--1--1--1--1--1--1--1--1--1--1~-0--0--0--0--0--0--0--0~-|
C|-------------------------------------------------------------|
   -  -  -  -  -  -  -  -  -  -  -     -  -  -  -  -  -  -
Padge
D|-------------------------------------------------------------|
A|------------------------------------------------10~~-8h10\6~-|
F|-7-----7-----7-----7-----7---7---6-----6-----6---------------|
C|---8-8---8-8---8-8---8-8---8---8---7-7---7-7-----------------|
G|-------------------------------------------------------------|
C|-------------------------------------------------------------|
     - -   - -   - -   - -   -   -   - -   - -
Gtr 3
D|--------------------------------------------------8~~-6h8\5~-|
A|-------------------------------------------------------------|
F|-10-------10-------10-------10-------9----9----9-------------|
C|----10-10----10-10----10-10----10-10---10---10---------------|
G|-------------------------------------------------------------|
C|-------------------------------------------------------------|
      -  -     -  -     -  -     -  -    -    -

Matt
D||-----------------------------------------------||
A||o---------------------------------------------o||
F||-----------------------------------------------||
C||-----------------------------------------------||
G||o---------------------------------------------o||
C||--0--0--0--0--0--0--0--0--0--0--0--0--0-0-0-0--||
     -  -  -  -  -  -  -  -  -  -  -  -  - - - -
Padge
D||-----------------------------------------------||
A||o---------------------------------------------o||
F||-10-------10-------10-------10-------9----9----||
C||----12-12----12-12----12-12----12-12---10---10-||
G||o---------------------------------------------o||
C||-----------------------------------------------||
       -  -     -  -     -  -     -  -    -    -
Gtr 3
D||-----------------------------------------------||
A||o-10-------10-------10-------10-------8----8--o||
F||-----10-10----10-10----10-10----10-10---9----9-||
C||-----------------------------------------------||
G||o---------------------------------------------o||
C||-----------------------------------------------||
        -  -     -  -     -  -     -  -    -    -

Matt
D|-------------------------------------------------------------|
A|-------------------------------------------------------------|
F|-------------------------------------------------------------|
C|-----------------------------------------------------------0-|
G|-1--1--1--1--1--1--1--1--1--1--1--1--0--0--0--0--0--0--0-0-0-|
C|-----------------------------------------------------------0-|
   -  -  -  -  -  -  -  -  -  -  -  -  -  -  -  -  -  -  - -
Padge
D|-------------------------------------------------------------|
A|------------------------------------------------10~~-8h10\6~-|
F|-7-----7-----7-----7-----7---7---6-----6-----6---------------|
C|---8-8---8-8---8-8---8-8---8---8---7-7---7-7-----------------|
G|-------------------------------------------------------------|
C|-------------------------------------------------------------|
     - -   - -   - -   - -   -   -   - -   - -
Gtr 3
D|--------------------------------------------------8~~-6h8\5~-|
A|-------------------------------------------------------------|
F|-10-------10-------10-------10-------9----9----9-------------|
C|----10-10----10-10----10-10----10-10---10---10---------------|
G|-------------------------------------------------------------|
C|-------------------------------------------------------------|
      -  -     -  -     -  -     -  -    -    -


-Solo-
Padge
D|-17p15p13----------17p15p13----------17p15p13----------17p15p13----------|
A|----------17p15p13----------17p15p13----------17p15p13----------17p15p13-|
F|-------------------------------------------------------------------------|
C|-------------------------------------------------------------------------|
G|-------------------------------------------------------------------------|
C|-------------------------------------------------------------------------|

D|-15p13p12----------15p13p12----------15p13p12----------15p13p12----------|
A|----------15p13p12----------15p13p12----------15p13p12----------15p13p12-|
F|-------------------------------------------------------------------------|
C|-------------------------------------------------------------------------|
G|-------------------------------------------------------------------------|
C|-------------------------------------------------------------------------|

D|-15-15-15-15-15-15-15-15-15br~~~-----------12-13-------13-15----13-15-17-13-15-17-|
A|---------------------------------/13-13-15-------15-17-------17-------------------|
F|----------------------------------------------------------------------------------|
C|----------------------------------------------------------------------------------|
G|----------------------------------------------------------------------------------|
C|----------------------------------------------------------------------------------|

D||---------13----17-13----------12----15pb-----||
A||o-15~-15----15-------15-13-13----13------17-o||
F||---------------------------------------------||
C||---------------------------------------------||
G||o-------------------------------------------o||
C||---------------------------------------------||

D|--------------------------------/17-15-----/18-17-15-|
A|-15~-----------------------------------18------------|
F|--------------12-14-15-14-15-17----------------------|
C|-----12-14-15----------------------------------------|
G|-----------------------------------------------------|
C|-----------------------------------------------------|
       -  -  -  -  -  -  -  -  -

D||---------13----17-13----------12----15pb-----||
A||o-15~-15----15-------15-13-13----13------17-o||
F||---------------------------------------------||
C||---------------------------------------------||
G||o-------------------------------------------o||
C||---------------------------------------------||

D|-------------------------------------------------------|
A|-------------------------------------------------------|
F|----------12-14-15----------14-15-17----------15-17-19-|
C|-12-14-15----------14-15-17----------15-17-19----------|
G|-------------------------------------------------------|
C|-------------------------------------------------------|

D|-------------------------------------/18-17-12-13~~~-|
A|-----------------------------------------------------|
F|----------17-19-20----------19-20-22-----------------|
C|-17-19-20----------19-20-22--------------------------|
G|-----------------------------------------------------|
C|-----------------------------------------------------|
Matt Under Solo
D|----------------------------------------|
A|----------------------------------------|
F|-----------------3-3------5-5----9~-10\-|
C|-0------0-0------3-3------5-5----9~-10\-|
G|-0------0-0------1-1------3-3----7~--8\-|
C|-0------0-0-----------------------------|

D||------------------------------------------------------------------------||
A||o----------------------------------------------------------------------o||
F||------------------------------------------------------------------------||
C||--0----------------------3-----------------5-----5-----5-----9-9-10-10--||
G||o-0----------------------1-1-1-1-1-1-1-1-1-3-3-3-3-3-3-3-3-3-7-7--8--8-o||
C||--0-0-0-0-0-0-0-0-0-0-0-------------------------------------------------||
       - - - -   -   - - -    - -   - -   - -   - -   - -   - -


-Verse-
Matt
D|---------------------------------------------------------------------------|
A|---------------------------------------------------------------------------|
F|---------------------------------------------------------------------------|
C|-0~~~~~~~~~~~~~~~~~~~~~~~~~~~~~~~~~~~~~~~~~~~~~-3~~~~~~~~~~~~~~~~~~~~~~~-5~|
G|-0~~~~~~~~~~~~~~~~~~~~~~~~~~~~~~~~~~~~~~~~~~~~~-1~~~~~~~~~~~~~~~~~~~~~~~-3~|
C|-0~~~~~~~~~~~~~~~~~~~~~~~~~~~~~~~~~~~~~~~~~~~~~----------------------------|
Padge
D|---------------------------------------------------------------------------|
A|---------------------------------------------------------------------------|
F|---------------------------------------------------------------------------|
C|---5h7\3~---3h5\2~--5--7----5h7\3~---3h5\2~--5--3----5h7\3~---3h5\2~--3--5-|
G|--------------------3--5---------------------3--1---------------------1--3-|
C|-0--------0---------------0--------0---------------0--------0--------------|
   -        -               -        -               -        -
"With every hour, give me the power. I need the strength to carry on...

Matt
D|------------------------|
A|------------------------|
F|------------------------|
C|~~~~~~~~~~~~-5----------|
G|~~~~~~~~~~~~-3----------|
C|------------------------|
Padge
D|------------------------|
A|------------------------|
F|------------------------|
C|---5h7\3-----5----------|
G|-------------3----------|
C|-0--------0-------------|
   -        -
              ...On and on"


-Chorus-
Matt
D||------------------------------------------------------------------|
A||o-----------------------------------------------------------------|
F||------------------------------------------------------------------|
C||--3-3-3-3-3-3-3-3-3-3-3-3-3-3-3-3-3-3-3-3-3-3-3-3-3-3-3-3-3-3-3-3-|
G||o-1-1-1-1-1-1-1-1-1-1-1-1-1-1-1-1-1-1-1-1-1-1-1-1-1-1-1-1-1-1-1-1-|
C||------------------------------------------------------------------|
Padge
D||------------------------------------------------------------------|
A||o-----------------------------------------------------------------|
F||------------------10-10-10-10-9-9-9-9-----------------------------|
C||--8-8-8-8-8-8-8-8-8--8--8--8--8-8-8-8-10-10-10-10-8-8-8-8-8-8-8-8-|
G||o-8-8-8-8-8-8-8-8-8--8--8--8--8-8-8-8-8--8--8--8--8-8-8-8-8-8-8-8-|
C||--8-8-8-8-8-8-8-8-8--8--8--8--8-8-8-8-8--8--8--8--8-8-8-8-8-8-8-8-|
"No more I care to live, when I'm just born to die...

Matt
D|-------------------------------------------------------------------||
A|------------------------------------------------------------------o||
F|-------------------------------------------------------------------||
C|-0~-------------------------------0~-------------------------------||
G|-0~--0-0----------0-0----------0--0~--0-0----------0-0----------0-o||
C|-0~--0-0----------0-0----------0--0~--0-0----------0-0----------0--||
       - -          - -          -      - -          - -          -
Padge
D|-------------------------------------------------------------------||
A|------------------------------------------------------------------o||
F|-------------------------------------------------------------------||
C|-------------------------------------------------------------------||
G|----------10-------8-------7---------------10-------8-------7-----o||
C|-0~-8-7-8----8-7-8---8-7-8---8-7--0~-8-7-8----8-7-8---8-7-8---8-7--||x4
      - - -    - - -   - - -   - -     - - -    - - -   - - -   - -
...WE'RE ALL BORN TO DIE!!! BORN TO DIE!!!...

-Outro-
Matt & Padge
D|------------------------------------------------------------------|
A|------------------------------------------------------------------|
F|------------------------------------------------------------------|
C|------------------------------------------------------------------|
G|----------10-------8-------7---------------10-------8-------7-----|
C|-0~-8-7-8----8-7-8---8-7-8---8-7--0~-8-7-8----8-7-8---8-7-8---8-7-|
      - - -    - - -   - - -   - -     - - -    - - -   - - -   - -
"To Die!... To Die!...

D|------------------------------------------------------------------------|
A|------------------------------------------------------------------------|
F|------------------------------------------------------------------------|
C|----------------------------------0~------------------------0-0-------0-|
G|----------10-------8-------7------0~-----10-----8-----7-----0-0--0000-0-|
C|-0~-8-7-8----8-7-8---8-7-8---8-7--0~-878----878---878---87--0-0--0000-0-|
      - - -    - - -   - - -   - -                            - -  ----
...To DIIIIIIIEEEEEEE!!! Oh"
Tap to rate this tab
# A B C D E F G H I J K L M N O P Q R S T U V W X Y Z