Song name
# A B C D E F G H I J K L M N O P Q R S T U V W X Y Z

Bullet For My Valentine - Road To Nowhere tab

Road To Nowhere
Bullet For My Valentine
Scream Aim Fire Deluxe Edition
D Tuning- DGCFAD

-Intro-
Matt- Acoustic
D|-4--4-4--4--4-4--4-4-4-4\-0--0-0--0--0-0--0-0-0-0-|
A|-5--5-5--5--5-5--5-5-5-5\-0--0-0--0--0-0--0-0-0-0-|
F|-6--6-6--6--6-6--6-6-6-6\-2--2-2--2--2-2--2-2-2-2/|
C|-6--6-6--6--6-6--6-6-6-6\-2--2-2--2--2-2--2-2-2-2/|
G|-4--4-4--4--4-4--4-4-4-4\-0--0-0--0--0-0--0-0-0-0-|
D|--------------------------------------------------|
Padge- Acoustic
D|-4--4-4--4--4-4--4-4-4-4/-0--0-0--0--0-0--0-0-0-0-|
A|-5--5-5--5--5-5--5-5-5-5/-0--0-0--0--0-0--0-0-0-0-|
F|-6--6-6--6--6-6--6-6-6-6/-9--9-9--9--9-9--9-9-9-9-|
C|-6--6-6--6--6-6--6-6-6-6/-9--9-9--9--9-9--9-9-9-9-|
G|-4--4-4--4--4-4--4-4-4-4/-7--7-7--7--7-7--7-7-7-7-|
D|--------------------------------------------------|

Matt
D|-0--0-0--0--0-0--0-0-0-0--0--0-0-0--0-0-0--0-|
A|-0--0-0--0--0-0--0-0-0-0--0--0-0-0--0-0-0--0-|
F|-4--4-4--4--4-4--4-4-4-4--x--x-x-x--x-x-x--x-|
C|-4--4-4--4--4-4--4-4-4-4--6--6-6-4--4-4-4--6-|
G|-2--2-2--2--2-2--2-2-2-2--7--7-7-6--6-6-6--7-|
D|---------------------------------------------|
Padge
D|-0--0-0--0--0-0--0-0-0-0--0--0-0-0--0-0-0--0-|
A|-0--0-0--0--0-0--0-0-0-0--0--0-0-0--0-0-0--0-|
F|-9--9-9--9--9-9--9-9-9-9--9--9-9-8--8-8-8--9-|
C|-9--9-9--9--9-9--9-9-9-9--9--9-9-9--9-9-9--9-|
G|-x--x-x--x--x-x--x-x-x-x--7--7-7-6--6-6-6--7-|
D|-7--7-7--7--7-7--7-7-7-7---------------------|

Matt
D|-4--4-4--4--4-4--4-4-4-4\-0--0-0--0--0-0--0-0-0-0-|
A|-5--5-5--5--5-5--5-5-5-5\-0--0-0--0--0-0--0-0-0-0-|
F|-6--6-6--6--6-6--6-6-6-6\-2--2-2--2--2-2--2-2-2-2/|
C|-6--6-6--6--6-6--6-6-6-6\-2--2-2--2--2-2--2-2-2-2/|
G|-4--4-4--4--4-4--4-4-4-4\-0--0-0--0--0-0--0-0-0-0-|
D|--------------------------------------------------|
Padge
D|-4--4-4--4--4-4--4-4-4-4/-0--0-0--0--0-0--0-0-0-0-|
A|-5--5-5--5--5-5--5-5-5-5/-0--0-0--0--0-0--0-0-0-0-|
F|-6--6-6--6--6-6--6-6-6-6/-9--9-9--9--9-9--9-9-9-9-|
C|-6--6-6--6--6-6--6-6-6-6/-9--9-9--9--9-9--9-9-9-9-|
G|-4--4-4--4--4-4--4-4-4-4/-7--7-7--7--7-7--7-7-7-7-|
D|--------------------------------------------------|

Matt
D|-0--0-0--0--0-0--0-0-0-0--0~~~~~~-|
A|-0--0-0--0--0-0--0-0-0-0--0~~~~~~-|
F|-4--4-4--4--4-4--4-4-4-4--4~~~~~~-|
C|-4--4-4--4--4-4--4-4-4-4--4~~~~~~-|
G|-2--2-2--2--2-2--2-2-2-2--2~~~~~~-|
D|----------------------------------|
Padge
D|-0--0-0--0--0-0--0-0-0-0--0~~~~~~-|
A|-0--0-0--0--0-0--0-0-0-0--0~~~~~~-|
F|-9--9-9--9--9-9--9-9-9-9--8~~~~~~-|
C|-9--9-9--9--9-9--9-9-9-9--9~~~~~~-|
G|-x--x-x--x--x-x--x-x-x-x--x-------|
D|-7--7-7--7--7-7--7-7-7-7--7~~~~~~-|


-Verse-
Matt
D||--4--4-4--4--4-4--4-4-4-4\-0--0-0--0--0-0--0-0-0-0-|
A||o-5--5-5--5--5-5--5-5-5-5\-0--0-0--0--0-0--0-0-0-0-|
F||--6--6-6--6--6-6--6-6-6-6\-2--2-2--2--2-2--2-2-2-2/|
C||--6--6-6--6--6-6--6-6-6-6\-2--2-2--2--2-2--2-2-2-2/|
G||o-4--4-4--4--4-4--4-4-4-4\-0--0-0--0--0-0--0-0-0-0-|
D||---------------------------------------------------|
Padge
D||--4--4-4--4--4-4--4-4-4-4/-0--0-0--0--0-0--0-0-0-0-|
A||o-5--5-5--5--5-5--5-5-5-5/-0--0-0--0--0-0--0-0-0-0-|
F||--6--6-6--6--6-6--6-6-6-6/-9--9-9--9--9-9--9-9-9-9-|
C||--6--6-6--6--6-6--6-6-6-6/-9--9-9--9--9-9--9-9-9-9-|
G||o-4--4-4--4--4-4--4-4-4-4/-7--7-7--7--7-7--7-7-7-7-|
D||---------------------------------------------------|
-"Tired and lonely, still we stand...
-Trapped in a world of endless days...
-Body and mind are breaking down...
-Destiny's silent, hear no sound...

Matt
D|-0--0-0--0--0-0--0-0-0-0--0--0-0-0--0-0-0--0--||
A|-0--0-0--0--0-0--0-0-0-0--0--0-0-0--0-0-0--0-o||
F|-4--4-4--4--4-4--4-4-4-4--x--x-x-x--x-x-x--x--||
C|-4--4-4--4--4-4--4-4-4-4--6--6-6-4--4-4-4--6--||
G|-2--2-2--2--2-2--2-2-2-2--7--7-7-6--6-6-6--7-o||
D|----------------------------------------------||
Padge                                             x4
D|-0--0-0--0--0-0--0-0-0-0--0--0-0-0--0-0-0--0--||
A|-0--0-0--0--0-0--0-0-0-0--0--0-0-0--0-0-0--0-o||
F|-9--9-9--9--9-9--9-9-9-9--9--9-9-8--8-8-8--9--||
C|-9--9-9--9--9-9--9-9-9-9--9--9-9-9--9-9-9--9--||
G|-x--x-x--x--x-x--x-x-x-x--7--7-7-6--6-6-6--7-o||
D|-7--7-7--7--7-7--7-7-7-7----------------------||
...On a Road To Nowheere...
...My engine's stalling (Road To Nowheere)
...On a Road To Nowheere...
...As I wait foreeverr"

-Chorus-
Matt & Padge
D|-0--0-0--0--0-0--0-0-0-0--0--0-0--0--0-0--0-0-0-0-|
A|-0--0-0--0--0-0--0-0-0-0--0--0-0--0--0-0--0-0-0-0-|
F|-2--2-2--2--2-2--2-2-2-2--2--2-2--2--2-2--2-2-2-2-|
C|-2--2-2--2--2-2--2-2-2-2--1--1-1--1--1-1--1-1-1-1-|
G|-0--0-0--0--0-0--0-0-0-0--2--2-2--2--2-2--2-2-2-2-|
D|--------------------------------------------------|
"Faarewell, I'll miss you I'm...

D|-0--0-0--0--0-0--0-0-0-0--4--4--0~~~~-|
A|-0--0-0--0--0-0--0-0-0-0--4--5--0~~~~-|
F|-1--1-1--1--1-1--1-1-1-1--6--6--6~~~~-|
C|-2--2-2--2--2-2--2-2-2-2--6--6--6~~~~-|
G|-2--2-2--2--2-2--2-2-2-2--4--4--4~~~~-|
D|--------------------------------------|
...Sick of these goodbyes...

D|-----0--0-0--0--0-0--0-0-0-0--0--0-0--0--0-0--0-0-0-0-|
A|----0---0-0--0--0-0--0-0-0-0--0--0-0--0--0-0--0-0-0-0-|
F|---2----2-2--2--2-2--2-2-2-2--2--2-2--2--2-2--2-2-2-2-|
C|--2-----2-2--2--2-2--2-2-2-2--1--1-1--1--1-1--1-1-1-1-|
G|-0------0-0--0--0-0--0-0-0-0--2--2-2--2--2-2--2-2-2-2-|
D|------------------------------------------------------|
...'Cause it tore us apart right from the start. I miss youu"


-Bridge-
Matt
D|-4--4-4--4--4-4--4-4-4-4\-0--0-0--0--0-0--0-0-0-0-|
A|-5--5-5--5--5-5--5-5-5-5\-0--0-0--0--0-0--0-0-0-0-|
F|-6--6-6--6--6-6--6-6-6-6\-2--2-2--2--2-2--2-2-2-2/|
C|-6--6-6--6--6-6--6-6-6-6\-2--2-2--2--2-2--2-2-2-2/|
G|-4--4-4--4--4-4--4-4-4-4\-0--0-0--0--0-0--0-0-0-0-|
D|--------------------------------------------------|
Padge
D|--------------------------------------------------|
A|-------------------------------------------7------|
F|---------------4h6~~~-----x-9--8--6--8--9-----9~~-|
C|---------2h4/6----------x-------------------------|
G|-----2h4--------------x---------------------------|
D|-2h4----------------------------------------------|

Matt
D|-0--0-0--0--0-0--0-0-0-0--0~~~~------------------------------|
A|-0--0-0--0--0-0--0-0-0-0--0~~~~-----9--7-----7--9--10--9~~~~\|
F|-4--4-4--4--4-4--4-4-4-4--4~~~~-----------9------------------|
C|-4--4-4--4--4-4--4-4-4-4--4~~~~------------------------------|
G|-2--2-2--2--2-2--2-2-2-2--2~~~~------------------------------|
D|-------------------------------------------------------------|
Padge
D|--------------------------------------------------------------------|
A|--------9--7-----7------------------9--7-----7--9--10--9~~~~\-5~~~~-|
F|-----x--------9-----9--8--9~~-----x-------9-------------------------|
C|---x----------------------------x-----------------------------------|
G|-x----------------------------x-------------------------------------|
D|--------------------------------------------------------------------|


-Verse-
Matt
D||--4--4-4--4--4-4--4-4-4-4\-0--0-0--0--0-0--0-0-0-0-|
A||o-5--5-5--5--5-5--5-5-5-5\-0--0-0--0--0-0--0-0-0-0-|
F||--6--6-6--6--6-6--6-6-6-6\-2--2-2--2--2-2--2-2-2-2/|
C||--6--6-6--6--6-6--6-6-6-6\-2--2-2--2--2-2--2-2-2-2/|
G||o-4--4-4--4--4-4--4-4-4-4\-0--0-0--0--0-0--0-0-0-0-|
D||---------------------------------------------------|
Padge
D||---------------------------------------------------|
A||o--------------------------------------------------|
F||---------------------------------------------------|
C||-----2-----2------------------2-----2--------------|
G||o-4-----4------------------0-----0-----------------|
D||---------------------------------------------------|
-"Feelings have failed me, left me cold...
-Dreams are my savior, save me now...

Matt
D|-0--0-0--0--0-0--0-0-0-0--0--0-0-0--0-0-0--0--||
A|-0--0-0--0--0-0--0-0-0-0--0--0-0-0--0-0-0--0-o||
F|-4--4-4--4--4-4--4-4-4-4--x--x-x-x--x-x-x--x--||
C|-4--4-4--4--4-4--4-4-4-4--6--6-6-4--4-4-4--6--||
G|-2--2-2--2--2-2--2-2-2-2--7--7-7-6--6-6-6--7-o||
D|----------------------------------------------||
Padge
D|----------------------------------------------||
A|---------------------------------------------o||
F|----------------------------------------------||
C|----2-----2--------------/6-----/4-----2p1----||
G|-2-----2---------------------7------6--------o||
D|----------------------------------------------||
...On this Road To Nowheeree (Road To Nowhere)
...'Cause I know I'm falling (Oh yeeah)


-Chorus-
Matt
D|-0--0-0--0--0-0--0-0-0-0--0--0-0--0--0-0--0-0-0-0-|
A|-0--0-0--0--0-0--0-0-0-0--0--0-0--0--0-0--0-0-0-0-|
F|-2--2-2--2--2-2--2-2-2-2--2--2-2--2--2-2--2-2-2-2-|
C|-2--2-2--2--2-2--2-2-2-2--1--1-1--1--1-1--1-1-1-1-|
G|-0--0-0--0--0-0--0-0-0-0--2--2-2--2--2-2--2-2-2-2-|
D|--------------------------------------------------|
Padge
D|-------7------------------------2-----------------|
A|--------------------------------------------------|
F|-----9------------------------4-------------------|
C|---9------------------------4---------------------|
G|-7------------------------2-----------------------|
D|--------------------------------------------------|
"Faarewell, I'll miss you I'm...

Matt
D|-0--0-0--0--0-0--0-0-0-0--4--4--0~~~~-|
A|-0--0-0--0--0-0--0-0-0-0--4--5--0~~~~-|
F|-1--1-1--1--1-1--1-1-1-1--6--6--6~~~~-|
C|-2--2-2--2--2-2--2-2-2-2--6--6--6~~~~-|
G|-2--2-2--2--2-2--2-2-2-2--4--4--4~~~~-|
D|--------------------------------------|
Padge
D|-------7------------------------2-----|
A|--------------------------------------|
F|-----9------------------------4-------|
C|---9------------------------4---------|
G|-7------------------------2-----------|
D|--------------------------------------|
...Sick of these goodbyes...

Matt
D|-----0--0-0--0--0-0--0-0-0-0--0--0-0--0--0-0--0-0-0-0-|
A|----0---0-0--0--0-0--0-0-0-0--0--0-0--0--0-0--0-0-0-0-|
F|---2----2-2--2--2-2--2-2-2-2--2--2-2--2--2-2--2-2-2-2-|
C|--2-----2-2--2--2-2--2-2-2-2--1--1-1--1--1-1--1-1-1-1-|
G|-0------0-0--0--0-0--0-0-0-0--2--2-2--2--2-2--2-2-2-2-|
D|------------------------------------------------------|
Padge
D|-------7----------------------------2-----------------|
A|------------------------------------------------------|
F|-----9----------------------------4-------------------|
C|---9----------------------------4---------------------|
G|-7----------------------------2-----------------------|
D|------------------------------------------------------|
...'Cause it tore us apart right from the start. I miss you"


-Breakdown-
Matt- Dist.
D|---------------------------------------------|
A|---------------------------------------------|
F|-6-6---------------------------------6--6--6-|
C|-6-6-6-6-6-6-6-6-6-6-6-6-6-6-6-6-6-6-6--6--6-|
G|-4-4-4-4-4-4-4-4-4-4-4-4-4-4-4-4-4-4-4--4--4-|
D|---------------------------------------------|
       - - - - - - - - - - - - - - - -
Padge- Dist.
D|---------------------------------------------|
A|---------------------------------------------|
F|-6-6---------------------------------6--6--6-|
C|-6-6---------------------------------6--6--6-|
G|-4-4---------------------------------4--4--4-|
D|---------------------------------------------|

Matt
D|---------------------------------------------------------|
A|---------------------------------------------------------|
F|-----------------------------6-6--6--4--2~~~~~~--2--4--6-|
C|-6-6-6-6-6-6-6-6-6-6-6-6-6-6-6-6--6--4--2~~~~~~--2--4--6-|
G|-4-4-4-4-4-4-4-4-4-4-4-4-4-4-4-4--4--2--0~~~~~~--0--2--4-|
D|---------------------------------------------------------|
   - - - - - - - - - - -
Padge
D|--------------------------------------------0-----0-----0---|
A|------------------------------------------3---3-----3-----3-|
F|----------------------------------------2-------2-----2-----|
C|------------------------------------------------------------|
G|------------------------------------------------------------|
D|------------------------------------------------------------|

Matt
D|-----------------------------------------|
A|-----------------------------------------|
F|---------------------------------6--6--6-|
C|-6-6-6-6-6-6-6-6-6-6-6-6-6-6-6-6-6--6--6-|
G|-4-4-4-4-4-4-4-4-4-4-4-4-4-4-4-4-4--4--4-|
D|-----------------------------------------|
   - - - - - - - - - - - - - - - -
Padge
D|-----------------------------------------|
A|-----------------------------------------|
F|---------------------------------6--6--6-|
C|---------------------------------6--6--6-|
G|---------------------------------4--4--4-|
D|-----------------------------------------|
"Candle's burn slowy, flames shine so brightly

Matt
D|---------------------------------------------------------|
A|---------------------------------------------------------|
F|-----------------------------6-6--6--4--2~~~~~~--2--4--6-|
C|-6-6-6-6-6-6-6-6-6-6-6-6-6-6-6-6--6--4--2~~~~~~--2--4--6-|
G|-4-4-4-4-4-4-4-4-4-4-4-4-4-4-4-4--4--2--0~~~~~~--0--2--4-|
D|---------------------------------------------------------|
   - - - - - - - - - - -
Padge
D|--------------------------------------------0-----0-----0---|
A|------------------------------------------3---3-----3-----3-|
F|----------------------------------------2-------2-----2-----|
C|------------------------------------------------------------|
G|------------------------------------------------------------|
D|------------------------------------------------------------|
...Lighten the darkness, save me from madness again...

Matt
D|-----------------------------------------|
A|-----------------------------------------|
F|---------------------------------6--6--6-|
C|-6-6-6-6-6-6-6-6-6-6-6-6-6-6-6-6-6--6--6-|
G|-4-4-4-4-4-4-4-4-4-4-4-4-4-4-4-4-4--4--4-|
D|-----------------------------------------|
   - - - - - - - - - - - - - - - -
Padge
D|-----------------------------------------|
A|-----------------------------------------|
F|---------------------------------6--6--6-|
C|---------------------------------6--6--6-|
G|---------------------------------4--4--4-|
D|-----------------------------------------|
...Only the lonely could possibly know me...

Matt
D|---------------------------------------|
A|---------------------------------------|
F|-----------------------------6-6--6--4-|
C|-6-6-6-6-6-6-6-6-6-6-6-6-6-6-6-6--6--4-|
G|-4-4-4-4-4-4-4-4-4-4-4-4-4-4-4-4--4--2-|
D|---------------------------------------|
   - - - - - - - - - - -
...Heat keeps on rising, fire engalls me...

D|-------------------------------------------|
A|-------------------------------------------|
F|-2~~~~~~~~~~~~~~~~-4~~~~~~~~~~~------------|
C|-2~~~~~~~~~~~~~~~~-4~~~~~~~~~~~-/6-6--/4-4-|
G|-0~~~~~~~~~~~~~~~~-2~~~~~~~~~~~-/7-7--/6-6-|
D|-------------------------------------------|
Padge
D|---0-----0-----0-----2-----2---------------|
A|-----3-----3-----3-----5-----5-------------|
F|-2-----2-----2-----4-----4-----------------|
C|--------------------------------/6-6--/4-4-|
G|--------------------------------/7-7--/6-6-|
D|-------------------------------------------|
...agaaaaaaaaain, keeps on risin'"

Matt
D||-----------------------------------------------|
A||o----------------------------------------------|
F||--6-------6----------------------6-------------|
C||--6-6-6-6-6-6-6------------6-6-6-6-------------|
G||o-4-4-4-4-4-4-4--9-7-6-7~--4-4-4-4--9--7--6--7-|
D||-----------------------------------------------|
       - - -   - -            - - -
Padge
D||-----------------------------------------------|
A||o----------------------------------------------|
F||--6-------6----------------------6-------------|
C||--6-6-6-6-6-6-6--7-6-4-6~--6-6-6-6--7--6--4--6-|
G||o-4-4-4-4-4-4-4------------4-4-4-4-------------|
D||-----------------------------------------------|
       - - -   - -            - - -

Matt
D|-------------------------------------------------||
A|------------------------------------------------o||
F|-2-2-2-2-2-2-2-2------------------4--------------||
C|-2-2-2-2-2-2-2-2------------4-4-4-4--/6-6--/4-4--||
G|-0-0-0-0-0-0-0-0--4h6-7-6~--2-2-2-2--/7-7--/6-6-o||
D|-------------------------------------------------||
Padge                         - - -
D|-------------------------------------------------||
A|------------------------------------------------o||
F|-2-2-2-2-2-2-2-2------1-----------4--------------||
C|-2-2-2-2-2-2-2-2--2h4---4~--4-4-4-4--/6-6--/4-4--||
G|-0-0-0-0-0-0-0-0------------2-2-2-2--/7-7--/6-6-o||
D|-------------------------------------------------||
                              - - -

-Outro-
Matt & Padge
D|-------------------------------------------------|
A|-------------------------------------------------|
F|-2-2-2-2-2-2-2-2-2-2-2-2-4-4-4-4-4-4-4-4-4-4-4-4-|
C|-2-2-2-2-2-2-2-2-2-2-2-2-4-4-4-4-4-4-4-4-4-4-4-4-|
G|-0-0-0-0-0-0-0-0-0-0-0-0-2-2-2-2-2-2-2-2-2-2-2-2-|
D|-------------------------------------------------|
"Farewell, I'll miss you, I'm...

D|-------------------------------------------------|
A|-------------------------------------------------|
F|-------------------------6-6-6-6-6-6-6-6-6-6-6-6-|
C|-2-2-2-2-2-2-2-2-2-2-2-2-6-6-6-6-6-6-6-6-6-6-6-6-|
G|-2-2-2-2-2-2-2-2-2-2-2-2-4-4-4-4-4-4-4-4-4-4-4-4-|
D|-0-0-0-0-0-0-0-0-0-0-0-0-------------------------|
...Sick of these goodbyes (Sick of these goodbyes)

D|-------------------------------------------------------|
A|-------------------------------------------------------|
F|-2-2-2-2-2-2-2-2-2-2-2-2-4-4-4-4-4-4-4-4-4-4-4-4-------|
C|-2-2-2-2-2-2-2-2-2-2-2-2-4-4-4-4-4-4-4-4-4-4-4-4-------|
G|-0-0-0-0-0-0-0-0-0-0-0-0-2-2-2-2-2-2-2-2-2-2-2-2--12\\-|
D|--------------------------------------------------12\\-|
...'Cause it tore us apart right from the start, I miss you...

D|-------------------------------------------------|
A|-------------------------------------------------|
F|-2-2-2-2-2-2-2-2-2-2-2-2-4-4-4-4-4-4-4-4-4-4-4-4-|
C|-2-2-2-2-2-2-2-2-2-2-2-2-4-4-4-4-4-4-4-4-4-4-4-4-|
G|-0-0-0-0-0-0-0-0-0-0-0-0-2-2-2-2-2-2-2-2-2-2-2-2-|
D|-------------------------------------------------|
...Farewell, I'll miss you, I'm...

D|-------------------------------------------------|
A|-------------------------------------------------|
F|-------------------------6-6-6-6-6-6-6-6-6-6-6-6-|
C|-2-2-2-2-2-2-2-2-2-2-2-2-6-6-6-6-6-6-6-6-6-6-6-6-|
G|-2-2-2-2-2-2-2-2-2-2-2-2-4-4-4-4-4-4-4-4-4-4-4-4-|
D|-0-0-0-0-0-0-0-0-0-0-0-0-------------------------|
...Sick of these goodbyyyyyyyes...

D|-------------------------------------------------|
A|-------------------------------------------------|
F|-2-2-2-2-2-2-2-2-2-2-2-2-4-4-4-4-4-4-4-4-4-4-4-4-|
C|-2-2-2-2-2-2-2-2-2-2-2-2-4-4-4-4-4-4-4-4-4-4-4-4-|
G|-0-0-0-0-0-0-0-0-0-0-0-0-2-2-2-2-2-2-2-2-2-2-2-2-|
D|-------------------------------------------------|
...'Cause it tore us apart right from the start, I miss...

Matt
D|-------------------------------------------------------------------------------------|
A|-------------------------------------------------------------------------------------|
F|-------------------------------------------------------------------------------------|
C|-2~~~~~~~~~~~~~~~~~~~~~~~~~~~~~~~~~~~~~~~~~~~~~~~~~~~~~~~~~~~~~~~~~~~~~~~~~~~~~~~~~~~|
G|-2~~~~~~~~~~~~~~~~~~~~~~~~~~~~~~~~~~~~~~~~~~~~~~~~~~~~~~~~~~~~~~~~~~~~~~~~~~~~~~~~~~~|
D|-0~~~~~~~~~~~~~~~~~~~~~~~~~~~~~~~~~~~~~~~~~~~~~~~~~~~~~~~~~~~~~~~~~~~~~~~~~~~~~~~~~~~|
Padge
D||--------7------------------------2------------------------7----------------------2--||
A||o----------------------------------------------------------------------------------o||
F||------9------------------------4------------------------9----------------------4----||
C||----9------------------------4------------------------9----------------------4------||
G||o-7------------------------2------------------------7----------------------2-------o||
D||------------------------------------------------------------------------------------||
...Yoooooooooooooooooooooouuuuuuuuuuuuuuuuuuuuuu"
Tap to rate this tab
 
# A B C D E F G H I J K L M N O P Q R S T U V W X Y Z