Song name
# A B C D E F G H I J K L M N O P Q R S T U V W X Y Z

Bullet For My Valentine - Her Voice Resides tab

-------------------------------------------------------------------------------
    (Lead Guitar - Matt Tuck) Her Voice Resides - Bullet For My Valentine
-------------------------------------------------------------------------------
Tabbed by: PoisonYourValentine
Email: PoisonYourValentine@hotmail.com

Tuning: Drop C


Intro:
e|---------------------------------------------------------------------------|
B|---------------------------------------------------------------------------|
G|---------------------------------------------------------------------------|
D|--------------------7---5-----2---3----------------------------------------|
A|0-0-0-0-0--0-0-0-0-----------------------8-7-8-12-10-12--------------------|
E|0-0-0-0-0--0-0-0-0----0---0-0---0---0-0--8-7-8-12-10-12--------------------|

e|---------------------------------------------------------------------------|
B|---------------------------------------------------------------------------|
G|---------------------------------------------------------------------------|
D|--------------------7---5-----2---3----------------------------------------|
A|0-0-0-0-0--0-0-0-0-----------------------8-7-8-12-10-12--------------------|
E|0-0-0-0-0--0-0-0-0----0---0-0---0---0-0--8-7-8-12-10-12--------------------|

e|---------------------------------------------------------------------------|
B|---------------------------------------------------------------------------|
G|---------------------------------------------------------------------------|
D|--------------------7---5-----2---3----------------------------------------|
A|0-0-0-0-0--0-0-0-0-----------------------8-7-8-12-10-12--------------------|
E|0-0-0-0-0--0-0-0-0----0---0-0---0---0-0--8-7-8-12-10-12--------------------|

e|---------------------------------------------------------------------------|
B|---------------------------------------------------------------------------|
G|---------------------------------------------------------------------------|
D|--------------------7---5-----2---3------8----10---------------------------|
A|0-0-0-0-0--0-0-0-0-----------------------8----10---------------------------|
E|0-0-0-0-0--0-0-0-0----0---0-0---0---0-0--8----10---------------------------|

Verse:
e|---------------------------------------------------------------------------|
B|---------------------------------------------------------------------------|
G|---------------------------------------------------------------------------|
D|10\--0------------------0---------2h3p2--0------------------7-7-5-5-8-8-5-5|
A|10\--0-0-0-0-0-0-0-0-0--0-0-0-0-0--------0-0-0-0-0-0-0-0-0-----------------|
E|10\--0-0-0-0-0-0-0-0-0--0-0-0-0-0--------0-0-0-0-0-0-0-0-0-----------------|

e|---------------------------------------------------------------------------|
B|---------------------------------------------------------------------------|
G|---------------------------------------------------------------------------|
D|0------------------0---------2h3p2--0------------------10-10-8-8-11-11-8-8-|
A|0-0-0-0-0-0-0-0-0--0-0-0-0-0--------0-0-0-0-0-0-0-0-0----------------------|
E|0-0-0-0-0-0-0-0-0--0-0-0-0-0--------0-0-0-0-0-0-0-0-0----------------------|

e|---------------------------------------------------------------------------|
B|---------------------------------------------------------------------------|
G|---------------------------------------------------------------------------|
D|0------------------0---------2h3p2--0------------------7-7-5-5-8-8-5-5-----|
A|0-0-0-0-0-0-0-0-0--0-0-0-0-0--------0-0-0-0-0-0-0-0-0----------------------|
E|0-0-0-0-0-0-0-0-0--0-0-0-0-0--------0-0-0-0-0-0-0-0-0----------------------|

e|---------------------------------------------------------------------------|
B|---------------------------------------------------------------------------|
G|---------------------------------------------------------------------------|
D|0------------------0---------2h3p2--0------------------10-10-8-8-11-11-8-8-|
A|0-0-0-0-0-0-0-0-0--0-0-0-0-0--------0-0-0-0-0-0-0-0-0----------------------|
E|0-0-0-0-0-0-0-0-0--0-0-0-0-0--------0-0-0-0-0-0-0-0-0----------------------|

Chorus:
e|---------------------------------------------------------------------------|
B|---------------------------------------------------------------------------|
G|-----------------------9-10------------------------------------------------|
D|8-----10--------7------9-10--8-----10--------7-|---------|-8-----10--------|
A|8-8-8-10-10-10--7-7-7--7-8---8-8-8-10-10-10--7-|PickSlide|-8-8-8-10-10-10--|
E|8-8-8-10-10-10--7-7-7--------8-8-8-10-10-10--7-|---------|-8-8-8-10-10-10--|

e|---------------------------------------------------------------------------|
B|---------------------------------------------------------------------------|
G|--------------------------777777777777777----------------------------------|
D|7------9-10--8-----10------------------------------------------------------|
A|7-7-7--9-10--8-8-8-10-10---------------------------------------------------|
E|7-7-7--7-8---8-8-8-10-10---------------------------------------------------|

e|---------------------------------------------------------------------------|
B|---------------------------------------------------------------------------|
G|---------------------------------------------------------------------------|
D|0-------------7--5---------------------------------------------------------|
A|0-0---0-0-0-0---------7---8------8-7-8-12-10-12----------------------------|
E|0-0-3-0-0-0-0--0--0-0---0---0-0--8-7-8-12-10-12----------------------------|

e|---------------------------------------------------------------------------|
B|---------------------------------------------------------------------------|
G|---------------------------------------------------------------------------|
D|-----------------------------7---5-----------------------------------------|
A|0-0-0-0-0-0-0-0--0-0-0-0-0-0-----------7---8------8-7-8-12-10-12-----------|
E|0-0-0-0-0-0-0-0--0-0-0-0-0-0---0---0-0---0---0-0--8-7-8-12-10-12-----------|

e|---------------------------------------------------------------------------|
B|---------------------------------------------------------------------------|
G|---------------------------------------------------------------------------|
D|------------------------7---5----------------------------------------------|
A|0-0--0-0--0-0--0-0--0-0-----------7---8------8-7-8-12-10-12----------------|
E|0-0--0-0--0-0--0-0--0-0---0---0-0---0---0-0--8-7-8-12-10-12----------------|

e|---------------------------------------------------------------------------|
B|---------------------------------------------------------------------------|
G|---------------------------------------------------------------------------|
D|------------------------7--5------------------8----10----------------------|
A|0-0--0-0--0-0--0-0--0-0----------7---8--------8----10----------------------|
E|0-0--0-0--0-0--0-0--0-0--0---0-0---0---0-0----8----10----------------------|

Verse:
e|---------------------------------------------------------------------------|
B|---------------------------------------------------------------------------|
G|---------------------------------------------------------------------------|
D|10\--0------------------0---------2h3p2--0------------------7-7-5-5-8-8-5-5|
A|10\--0-0-0-0-0-0-0-0-0--0-0-0-0-0--------0-0-0-0-0-0-0-0-0-----------------|
E|10\--0-0-0-0-0-0-0-0-0--0-0-0-0-0--------0-0-0-0-0-0-0-0-0-----------------|

e|---------------------------------------------------------------------------|
B|---------------------------------------------------------------------------|
G|---------------------------------------------------------------------------|
D|0------------------0---------2h3p2--0------------------10-10-8-8-11-11-8-8-|
A|0-0-0-0-0-0-0-0-0--0-0-0-0-0--------0-0-0-0-0-0-0-0-0----------------------|
E|0-0-0-0-0-0-0-0-0--0-0-0-0-0--------0-0-0-0-0-0-0-0-0----------------------|

e|---------------------------------------------------------------------------|
B|---------------------------------------------------------------------------|
G|---------------------------------------------------------------------------|
D|0------------------0---------2h3p2--0------------------7-7-5-5-8-8-5-5-----|
A|0-0-0-0-0-0-0-0-0--0-0-0-0-0--------0-0-0-0-0-0-0-0-0----------------------|
E|0-0-0-0-0-0-0-0-0--0-0-0-0-0--------0-0-0-0-0-0-0-0-0----------------------|

e|---------------------------------------------------------------------------|
B|---------------------------------------------------------------------------|
G|---------------------------------------------------------------------------|
D|0------------------0---------2h3p2--0------------------10-10-8-8-11-11-8-8-|
A|0-0-0-0-0-0-0-0-0--0-0-0-0-0--------0-0-0-0-0-0-0-0-0----------------------|
E|0-0-0-0-0-0-0-0-0--0-0-0-0-0--------0-0-0-0-0-0-0-0-0----------------------|

Chorus:
e|---------------------------------------------------------------------------|
B|---------------------------------------------------------------------------|
G|-----------------------9-10------------------------------------------------|
D|8-----10--------7------9-10--8-----10--------7-|---------|-8-----10--------|
A|8-8-8-10-10-10--7-7-7--7-8---8-8-8-10-10-10--7-|PickSlide|-8-8-8-10-10-10--|
E|8-8-8-10-10-10--7-7-7--------8-8-8-10-10-10--7-|---------|-8-8-8-10-10-10--|

e|---------------------------------------------------------------------------|
B|---------------------------------------------------------------------------|
G|--------------------------777777777777777----------------------------------|
D|7------9-10--8-----10------------------------------------------------------|
A|7-7-7--9-10--8-8-8-10-10---------------------------------------------------|
E|7-7-7--7-8---8-8-8-10-10---------------------------------------------------|

e|---------------------------------------------------------------------------|
B|---------------------------------------------------------------------------|
G|---------------------------------------------------------------------------|
D|0-------------7--5---------------------------------------------------------|
A|0-0---0-0-0-0---------7---8------8-7-8-12-10-12----------------------------|
E|0-0-3-0-0-0-0--0--0-0---0---0-0--8-7-8-12-10-12----------------------------|

e|---------------------------------------------------------------------------|
B|---------------------------------------------------------------------------|
G|---------------------------------------------------------------------------|
D|-----------------------------7---5-----------------------------------------|
A|0-0-0-0-0-0-0-0--0-0-0-0-0-0-----------7---8------8-7-8-12-10-12-----------|
E|0-0-0-0-0-0-0-0--0-0-0-0-0-0---0---0-0---0---0-0--8-7-8-12-10-12-----------|

e|---------------------------------------------------------------------------|
B|---------------------------------------------------------------------------|
G|---------------------------------------------------------------------------|
D|------------------------7---5----------------------------------------------|
A|0-0--0-0--0-0--0-0--0-0-----------7---8------8-7-8-12-10-12----------------|
E|0-0--0-0--0-0--0-0--0-0---0---0-0---0---0-0--8-7-8-12-10-12----------------|

e|---------------------------------------------------------------------------|
B|---------------------------------------------------------------------------|
G|---------------------------------------------------------------------------|
D|------------------------7--5------------------8----10----------------------|
A|0-0--0-0--0-0--0-0--0-0----------7---8--------8----10----------------------|
E|0-0--0-0--0-0--0-0--0-0--0---0-0---0---0-0----8----10----------------------|

Interlude:

e|---------------------------|
B|---------------------------|
G|---------------------------|
D|10-10-9----12-12-9---------|
A|--------10-----------------|
E|---------------------------|

e|---------------------------------------------------------------------------|
B|---------------------------------------------------------------------------|
G|---------------------------------------------------------------------------|
D|10-10-10-9----12-12--------------------------------------------------------| ___ Repeat 15 Times
A|-----------10--------------------------------------------------------------|
E|---------------------------------------------------------------------------|

e|---------------------------------------------------------------------------|
B|---------------------------------------------------------------------------|
G|---------------------------------------------------------------------------|
D|5-7h5-0-3h5-0----5-7h5-0-3h5-0----5-7h5-0-3h5-0--8-7-5-7-5-3---------------| 
A|---------------------------------------------------------------------------|
E|---------------------------------------------------------------------------|

e|---------------------------------------------------------------------------|
B|---------------------------------------------------------------------------|
G|---------------------------------------------------------------------------|
D|5-7h5-0-3h5-0----5-7h5-0-3h5-0----5-7h5-0-3h5-0--8-8h7p5h0-7-5h3p2---------| 
A|---------------------------------------------------------------------------|
E|---------------------------------------------------------------------------|

e|---------------------------------------------------------------------------|
B|---------------------------------------------------------------------------|
G|---------------------------------------------------------------------------|
D|5-7h5-0-3h5-0----5-7h5-0-3h5-0----5-7h5-0-3h5-0--8-7-5-7-5-3---------------| 
A|---------------------------------------------------------------------------|
E|---------------------------------------------------------------------------|

e|---------------------------------------------------------------------------|
B|---------------------------------------------------------------------------|
G|---------------------------------------------------------------------------|
D|5-7h5-0-3h5-0----5-7h5-0-3h5-0----5-7h5-0-3h5-0--8-7-5-7-5-3---------------| 
A|---------------------------------------------------------------------------|
E|---------------------------------------------------------------------------|

e|---------------------------------------------------------------------------|
B|---------------------------------------------------------------------------|
G|---------------------------------------------------------------------------|
D|---------------------------------------------------------------------------|
A|7-7-7-7-7-7-7--7-8-8-8-8-8-8-8--8-7-7-7-7-7-7-7--7-7-7-7-7-7-7-7-----------|
E|---------------------------------------------------------------------------|

e|---------------------------------------------------------------------------|
B|---------------------------------------------------------------------------|
G|---------------------------------------------------------------------------|
D|0------------------0---------2h3p2--0------------------7-7-5-5-8-8-5-5-----|
A|0-0-0-0-0-0-0-0-0--0-0-0-0-0--------0-0-0-0-0-0-0-0-0----------------------|
E|0-0-0-0-0-0-0-0-0--0-0-0-0-0--------0-0-0-0-0-0-0-0-0----------------------|

Solo
e|---------------------------------------------------------------------------|
B|-----------------------------------------------------10-10-8-8-11-11-8-8---|
G|---------------------------------------------------------------------------|
D|0------------------0---------2h3p2--0--------------------------------------|
A|0-0-0-0-0-0-0-0-0--0-0-0-0-0--------0-0-0-0-0-0-0-0-0----------------------|
E|0-0-0-0-0-0-0-0-0--0-0-0-0-0--------0-0-0-0-0-0-0-0-0----------------------|

e|---------------------------------------------------------------------------|
B|---------------------------------------------------------------------------|
G|---------15-14-9--10-9---7-10-9----12-10-10-9------------------------------|
D|15-14-7----------------7---------7------------7----------------------------|
A|---------------------------------------------------------------------------|
E|---------------------------------------------------------------------------|

  T           T           T           T
e|17-13----13-17-13----13-17-13----13-17-13----13----------------------------|
B|------15----------15----------15----------15-------------------------------|
G|---------------------------------------------------------------------------|
D|---------------------------------------------------------------------------|
A|---------------------------------------------------------------------------|
E|---------------------------------------------------------------------------|

  T           T           T           T
e|18-13----13-18-13----13-18-13----13-18-13----13----------------------------|
B|------15----------15----------15----------15-------------------------------|
G|---------------------------------------------------------------------------|
D|---------------------------------------------------------------------------|
A|---------------------------------------------------------------------------|
E|---------------------------------------------------------------------------|

  T           T           T 
e|20-13----13-20-13----13-20-13----13-18-13----13----------------------------|
B|------15----------15----------15----------15----10-10-8-8-11-11-8-8--------|
G|---------------------------------------------------------------------------|
D|---------------------------------------------------------------------------|
A|---------------------------------------------------------------------------|
E|---------------------------------------------------------------------------|

Chorus:
e|---------------------------------------------------------------------------|
B|---------------------------------------------------------------------------|
G|-----------------------9-10------------------------------------------------|
D|8-----10--------7------9-10--8-----10--------7-|---------|-8-----10--------|
A|8-8-8-10-10-10--7-7-7--7-8---8-8-8-10-10-10--7-|PickSlide|-8-8-8-10-10-10--|
E|8-8-8-10-10-10--7-7-7--------8-8-8-10-10-10--7-|---------|-8-8-8-10-10-10--|

e|---------------------------------------------------------------------------|
B|---------------------------------------------------------------------------|
G|--------------------------777777777777777----------------------------------|
D|7------9-10--8-----10------------------------------------------------------|
A|7-7-7--9-10--8-8-8-10-10---------------------------------------------------|
E|7-7-7--7-8---8-8-8-10-10---------------------------------------------------|

e|---------------------------------------------------------------------------|
B|---------------------------------------------------------------------------|
G|---------------------------------------------------------------------------|
D|0-------------7--5---------------------------------------------------------|
A|0-0---0-0-0-0---------7---8------8-7-8-12-10-12----------------------------|
E|0-0-3-0-0-0-0--0--0-0---0---0-0--8-7-8-12-10-12----------------------------|

e|---------------------------------------------------------------------------|
B|---------------------------------------------------------------------------|
G|---------------------------------------------------------------------------|
D|-----------------------------7---5-----------------------------------------|
A|0-0-0-0-0-0-0-0--0-0-0-0-0-0-----------7---8------8-7-8-12-10-12-----------|
E|0-0-0-0-0-0-0-0--0-0-0-0-0-0---0---0-0---0---0-0--8-7-8-12-10-12-----------|

e|---------------------------------------------------------------------------|
B|---------------------------------------------------------------------------|
G|---------------------------------------------------------------------------|
D|------------------------7---5----------------------------------------------|
A|0-0--0-0--0-0--0-0--0-0-----------7---8------8-7-8-12-10-12----------------|
E|0-0--0-0--0-0--0-0--0-0---0---0-0---0---0-0--8-7-8-12-10-12----------------|

e|---------------------------------------------------------------------------|
B|---------------------------------------------------------------------------|
G|---------------------------------------------------------------------------|
D|------------------------7--5------------------8----10----------------------|
A|0-0--0-0--0-0--0-0--0-0----------7---8--------8----10----------------------|
E|0-0--0-0--0-0--0-0--0-0--0---0-0---0---0-0----8----10----------------------|

Outro:
e|---------------------------------------------------------------------------|
B|---------------------------------------------------------------------------|
G|---------------------------------------------------------------------------|
D|----7--5-------------------------10----------------------------------------|
A|0-0-----------7---8--------8-7-8-10----------------------------------------|
E|0-0--0---0--0---0---0-0----8-7-8-10----------------------------------------|

e|---------------------------------------------------------------------------|
B|---------------------------------------------------------------------------|
G|---------------------------------------------------------------------------|
D|---------------------------------------------------------------------------|
A|0-0--0-0--0-0--0-0---0-0-0-8----0-0--0-0--0-0---0-0------------------------|
E|0-0--0-0--0-0--0-0---0-0-0-8----0-0--0-0--0-0---0-0------------------------|

e|---------------------------------------------------------------------------|
B|---------------------------------------------------------------------------|
G|---------------------------------------------------------------------------|
D|---------------------------------------------------------------------------|
A|0-0-0-8---0-0--0-0--0-0---0-0--0-0--0-0--0---0---0-0--0-0------------------|
E|0-0-0-8---0-0--0-0--0-0---0-0--0-0--0-0--0---0---0-0--0-0------------------|

e|---------------------------------------------------------------------------|
B|---------------------------------------------------------------------------|
G|---------------------------------------------------------------------------|
D|---------------------------------------------------------------------------|
A|0-0-0-8---0-0--0-0--0-0---0-0---0-0-0-8------------------------------------|
E|0-0-0-8---0-0--0-0--0-0---0-0---0-0-0-8------------------------------------|

e|---------------------------------------------------------------------------|
B|---------------------------------------------------------------------------|
G|---------------------------------------------------------------------------|
D|---------------------------------------------------------------------------|
A|0-0--0-0--0-0---0-0---0-0--0-0--0-0---0-0---0-0--0-0--0-0------------------|
E|0-0--0-0--0-0---0-0---0-0--0-0--0-0---0-0---0-0--0-0--0-0------------------|

e|---------------------------------------------------------------------------|
B|---------------------------------------------------------------------------|
G|---------------------------------------------------------------------------|
D|---------------------------------------------------------------------------|
A|0-0---0-0--0-0--0----------------------------------------------------------|
E|0-0---0-0--0-0--0--3*------------------------------------------------------|

| /  slide up
| \  slide down
| h  hammer-on
| p  pull-off
| *  harmonic
=============================================================================

                     Luke Dorward - Copyright 2009

=============================================================================


Tap to rate this tab
 
# A B C D E F G H I J K L M N O P Q R S T U V W X Y Z