Song name
# A B C D E F G H I J K L M N O P Q R S T U V W X Y Z

Bullet For My Valentine - Tears Dont Fall Acoustic tab

pls watch our video before rating!!!
http://www.youtube.com/watch?v=IoZF_GWbWV0

Tuning: STANDARD

intro/verse

|--------------------------------------- ---------------------------|
|--------------------------------------- ---------------------------|
|-----6---6-6---6-6---6---7---6--------- ---------------------7h9---|
|-4-4---4-----4-----4---4---4--------7-- -7-7---7-----9---7h9-------|
|--------------------------------5-5---5 -----5---7-7---7-----------|
|--------------------------------------- ---------------------------|

Gtr 2 intro/verse

E E E
|-2----------------0--------0----|
|-2----------------3--------0----|
|-2----------------2--------1----|
|-4----------------0--------2----|
|-4----------------0--------2----|
|-2-------------------------0----|

Gtr 2 chorus

|-0-0-0--0-0-0--0-0-0--0-2-0----|
|-3-2-3--0-2-0--3-2-3--0-2-0----|
|-2-2-2--1-1-1--2-2-2--1-2-1----|
|-0-0-0--2-2-2--0-0-0--2-4-2----|
|-0-0-0--2-2-2--0-0-0--2-4-2----|
|--------0-0-0---------0-2-0----|

Gtr 1 chorus

|-5---5---5---5---5---5---5---5---4---4- --4---4---7---7---7---7------|
|---5---5---5---5---5---5---5---5---5--- 5---5---5---5---5---5---5----|
|--------------------------------------- -----------------------------|
|--------------------------------------- -----------------------------|
|--------------------------------------- -----------------------------|
|--------------------------------------- -----------------------------| 
Gtr 1 Solo
|--------------------------------------- ---------------------------|
|-------------------5-3-2-3-2-0-2-0---0- ---------------------------|
|-----1-2-4-2---2-------------------2--- 2-1------------------------|
|---4---------4---4--------------------- ----4-6-7-2-0--------------|
|--------------------------------------- --------------5h7p5-4-2----|
|-2------------------------------------- ---------------------------|

|----------9-------9-------9----7-----7- ----7---------------------------------|
|-7-9-10-5---10------10------10---9----- 9-----9-------------------------------|
|---------------11------11----------9--- --9-------------2-4-6-4-2-4-2-1-2-1---|
|--------------------------------------- --------4-6-7-9---------------------4-|
|--------------------------------------- --------------------------------------|
|--------------------------------------- --------------------------------------|


|----------|
|----------|
|-1--------|
|---4-2----|
|----------|
|----------|


Gtr 2 End of solo harmony

|--------------------------------|
|-2-3-5-3-2-3-2-0-2-0---0--------|
|---------------------2---2-1----|
|--------------------------------|
|--------------------------------|
|--------------------------------|


Gtr 2 end chorus transition
|------------------|
|------------------|
|-----6------------|
|-6-7---7-6-7-4----|
|------------------|
|------------------|


Gtr end chorus transition harmony
|------------------|
|-----5------------|
|-4-6---6-4-6-2----|
|------------------|
|------------------|
|------------------| 
Tap to rate this tab
 
# A B C D E F G H I J K L M N O P Q R S T U V W X Y Z