Song name
# A B C D E F G H I J K L M N O P Q R S T U V W X Y Z

Bullet For My Valentine - Four Words To Choke Upon tab

Okay guys i tabbed this one by ear so I'm not sure how correct it is but i love 
this song and the solo. This is how i play the solo. if you wanna comment/complain/
correct just write it in the comments and i'll try it out and see if i believe it 
should be fixed...

Song - Four Words (to choke upon)
band - Bullet for my Valentine(BFMV)
Part - Solo
Tabbed by - ME! (Ibanez22295)

Tuning - Drop C (CGCFAD)


Pre Solo


D|-------------------------------------------------------------------------|
A|-------------------------------------------------------------------------|
F|-------------------------------------------------------------------------|
C|-0001-0001-0001---0001-0001-0001---0001-0001-0001---0001-0001-0001-12\\\-|
G|-0001-0001-0001---0001-0001-0001---0001-0001-0001---0001-0001-0001-12\\\-|
C|-0001-0001-0001---0001-0001-0001---0001-0001-0001---0001-0001-0001-12\\\-|
PM ...  ...  ...    ...  ...  ...    ...  ...  ...    

Solo

D|-13p10-------13p10-13p10-------13p10-13p10--------|\ 
A|-------11p10-------------11p10-------------11p10--| \
F|--------------------------------------------------|  \__Play 3x
C|--------------------------------------------------|  /
G|--------------------------------------------------| /
C|--------------------------------------------------|/

|-13p10-------13p10------13~~\\-|
|-------11p10-------11p10-------|
|-------------------------------|
|-------------------------------|
|-------------------------------|
|-------------------------------|

This part I'm not sure about =/
|------/5~-----------|
|-/6~--/6~--/5~------|
|-/7~-------/6~------|
|----------------12\-|
|--------------------|
|--------------------|

|----------13----------12-|----------13---------|
|-10-11-10----10-11-10----|-10-11-10----10-11\\-|
|-------------------------|---------------------|
|-------Played 3x---------|---------------------|
|-------------------------|---------------------|
|-------------------------|---------------------|

|----------------------------20^----|
|-//18tp-17tp-18tp-17tp-18tp--------|
|-----------------------------------|
|-----------------------------------|
|-----------------------------------|
|--------------------------------5^-|

The End

Thanks for looking at my tab

**** Please Rate My Tab ****
-------- ########## --------
-------- #@@@@@@@@# --------
-------- #@@####### --------
-------- #@@# --------------
-------- #@@##### ----------
-------- #@@@@@@### --------
--------- ####@@@## --------
-------- ##@##@@@## --------
-------- ##@@@@### ---------
---------- ###### ----------
Tap to rate this tab
# A B C D E F G H I J K L M N O P Q R S T U V W X Y Z