Song name
# A B C D E F G H I J K L M N O P Q R S T U V W X Y Z

Bullet For My Valentine - Room 409 tab

Room 409
Bullet For My Valentine
The Poison
Drop C- CGCFAD


-Intro-
Padge
D|------------------------------------------------------------------------------------|
A|------------------------------------------------------------------------------------|
F|------------------------------------------------------------------------------------|
C|-3-------3---------------2-------2---------------3-------3---------------2----------|
G|------------------------------------------------------------------------------------|
C|---0-0-0---0-0-0-000-000---0-0-0---0-0-0-000-000---0-0-0---0-0-0-000-000---0-0-0b===|
     - - -   - - - --- ---   - - -   - - - --- ---   - - -   - - - --- ---   - -

Matt
D|-----------------------------------------------------------------------------------------|
A|-----------------------------------------------------------------------------------------|
F|-----------------------------------------------------------------------------------------|
C|-7-------7---------------5-------5---------7-------7-------------5-7-5-7~-5-7-5-7~-7p5p3-|
G|-----------------------------------------------------------------------------------------|
C|---0-0-0---0-0-0-000-000---0-0-0---0-0-0-0---0-0-0---0-0-000-000-------------------------|
     - - -   - - - --- ---   - - -   - - - -   - - -   - - --- ---
Padge
D|-----------------------------------------------------------------------------------------|
A|-----------------------------------------------------------------------------------------|
F|-----------------------------------------------------------------------------------------|
C|-3-------3---------------2-------2---------3-------3-------------2-3-2-3~-2-3-2-3~-3p2p0-|
G|-----------------------------------------------------------------------------------------|
C|---0-0-0---0-0-0-000-000---0-0-0---0-0-0-0---0-0-0---0-0-000-000-------------------------|
     - - -   - - - --- ---   - - -   - - - -   - - -   - - --- ---

Matt & Padge
D|-------------------------------------------------------------------------------|
A|-------------------------------------------------------------------------------|
F|-------------------------------------------------------------------------------|
C|-7p0-0-0-7p0-0-0-----------5p0-0-0-5p0-0-0-----------7p0-0-0-7p0-0-0-----------|
G|-7p0-0-0-7p0-0-0-0-000-000-5p0-0-0-5p0-0-0-0-0-0~-0~-7p0-0-0-7p0-0-0-0-000-000-|
C|-7p0-0-0-7p0-0-0-0-000-000-5p0-0-0-5p0-0-0-0-0-0~-0~-7p0-0-0-7p0-0-0-0-000-000-|
                   - --- ---                 - - -  -                  - --- ---
D|-------------------------------------|
A|-------------------------------------|
F|-------------------------------------|
C|-------------------------------------|
G|-------------------------------------|
C|-88888-77777-55555-77777-55555-33333-|

D|-------------------------------------------------------------------------------|
A|-------------------------------------------------------------------------------|
F|-------------------------------------------------------------------------------|
C|-7p0-0-0-7p0-0-0-----------5p0-0-0-5p0-0-0-----------7p0-0-0-7p0-0-0-----------|
G|-7p0-0-0-7p0-0-0-0-000-000-5p0-0-0-5p0-0-0-0-0-0~-0~-7p0-0-0-7p0-0-0-0-000-000-|
C|-7p0-0-0-7p0-0-0-0-000-000-5p0-0-0-5p0-0-0-0-0-0~-0~-7p0-0-0-7p0-0-0-0-000-000-|
                   - --- ---                 - - -  -                  - --- ---
D|---------------------------|
A|---------------------------|
F|---------------------------|
C|-8--7--5--7--5--3--0~~~~---|
G|-8--7--5--7--5--3--0~~~~-x-|
C|-8--7--5--7--5--3--0~~~~-x-|


-Verse-
Matt
D||-------------------------------------------------------------------------------||
A||o-----------------------------------------------------------------------------o||
F||-------------------------------------------------------------------------------||
C||-------------------------------------------------------------------------------||
G||o---------8---7---------10---8---------12---7---0h1p0h1p0h1p0h3p0h3p0h3p0h3p0-o||
C||--0-0-0-0---0---0-0-0-0----0---0-0-0-0----0---0--------------------------------||
     - - - -   -   - - - -    -   - - - -    -   -
Padge
D||-------------------------------------------------------------------------------||
A||o-----------------------------------------------------------------------------o||
F||-------------------------------------------------------------------------------||
C||----------7---5---------8----7---------10---7----------------------------------||
G||o-----------------------------------------------0h1p0h1p0h1p0h3p0h3p0h3p0h3p0-o||
C||--0-0-0-0---0---0-0-0-0----0---0-0-0-0----0---0--------------------------------||
     - - - -   -   - - - -    -   - - - -    -   -
-"(I!!!) Can't believe, WHAT I'VE SEEN! (SO SCRATCH MY EYES OUT!!!)
-...(YOU!!!) Were at ease, ON YOUR KNEES! (IN HIS APARTMENT!!!)


D||----------------------------------------------------------------------------||
A||o--------------------------------------------------------------------------o||
F||----------------------------------------------------------------------------||
C||----------------------------------------------------------------------------||
G||o-0-0-0-0-------0-0-0-0--------0-0-0-0-------0h1p0h1p0h1p0h3p0h3p0h3p0h3p0-o||
C||--0-0-0-0-------0-0-0-0--------0-0-0-0--------------------------------------||
     - - - -       - - - -        - - - -
D||----------------------------------------------------------------------------||
A||o--------------------------------------------------------------------------o||
F||----------------------------------------------------------------------------||
C||----------8\7~~---------10\7~~---------5/7~~--------------------------------||
G||o-0-0-0-0-6\5~~-0-0-0-0--8\5~~-0-0-0-0-3/5~~-0h1p0h1p0h1p0h3p0h3p0h3p0h3p0-o||
C||--0-0-0-0-------0-0-0-0--------0-0-0-0--------------------------------------||
     - - - -       - - - -        - - - -
-...(YOU!!!) Said his name, AS I CAME! (IN YOUR DIRECTION!!!)
-...(NOW!!!) I can choose, WHAT TO DO! (WITH BOTH OF YOU!!!)"


-Pre Chorus-
Matt
D|-----------------------------------------------------------------------------------|
A|-----------------------------------------------------------------------------------|
F|-----------------------------------------------------------------------------------|
C|-7-------7---------------5-------5-----------7-------7--------------8---8---8---8--|
G|--------------------------------------------------------------------8---8---8---8--|
C|---0-0-0---0-0-0-000-000---0-0-0---0-0-0-0-0---0-0-0---0-0-000-000--8---8---8---8--|
     - - -   - - - --- ---   - - -   - - - - -   - - -   - - --- ---
Padge
D|-----------------------------------------------------------------------------------|
A|--------------------------------------------------------------------11--11--11--11-|
F|--------------------------------------------------------------------10--10--10--10-|
C|-3-------3---------------2-------2-----------3-------3--------------8---8---8---8--|
G|--------------------------------------------------------------------8---8---8---8--|
C|---0-0-0---0-0-0-000-000---0-0-0---0-0-0-0-0---0-0-0---0-0-000-000--8---8---8---8--|
     - - -   - - - --- ---   - - -   - - - - -   - - -   - - --- ---
"I LOVED YOU! (I hate you) YOU HURT ME! (I loved you) I LOVED YOU! YOU! HURT! ME! BAD!

...GO!!!"

-Chorus-
D|-------------------------------------------------------------------------------|
A|-------------------------------------------------------------------------------|
F|-------------------------------------------------------------------------------|
C|-7p0-0-0-7p0-0-0-----------5p0-0-0-5p0-0-0-----------7p0-0-0-7p0-0-0-----------|
G|-7p0-0-0-7p0-0-0-0-000-000-5p0-0-0-5p0-0-0-0-0-0~-0~-7p0-0-0-7p0-0-0-0-000-000-|
C|-7p0-0-0-7p0-0-0-0-000-000-5p0-0-0-5p0-0-0-0-0-0~-0~-7p0-0-0-7p0-0-0-0-000-000-|
                   - --- ---                 - - -  -                  - --- ---
"(Your Words!) Bury meee, of what I used to beee. I can't...

D|-------------------------------------|
A|-------------------------------------|
F|-------------------------------------|
C|-------------------------------------|
G|-------------------------------------|
C|-88888-77777-55555-77777-55555-33333-|
...Erase all those things I've seen...

D|-------------------------------------------------------------------------------|
A|-------------------------------------------------------------------------------|
F|-------------------------------------------------------------------------------|
C|-7p0-0-0-7p0-0-0-----------5p0-0-0-5p0-0-0-----------7p0-0-0-7p0-0-0-----------|
G|-7p0-0-0-7p0-0-0-0-000-000-5p0-0-0-5p0-0-0-0-0-0~-0~-7p0-0-0-7p0-0-0-0-000-000-|
C|-7p0-0-0-7p0-0-0-0-000-000-5p0-0-0-5p0-0-0-0-0-0~-0~-7p0-0-0-7p0-0-0-0-000-000-|
                   - --- ---                 - - -  -                  - --- ---
...(Your Heart!) Smothers meee, now it's hard to breeeathe. I can't...

D|-------------------------------|
A|-------------------------------|
F|-------------------------------|
C|-8--7--5--7--5--3--0~~~~~~~~---|
G|-8--7--5--7--5--3--0~~~~~~~~-x-|
C|-8--7--5--7--5--3--0~~~~~~~~-x-|
...Erase all of my memories"


-Verse-
Matt
D||-------------------------------------------------------------------------------||
A||o-----------------------------------------------------------------------------o||
F||-------------------------------------------------------------------------------||
C||-------------------------------------------------------------------------------||
G||o---------8---7---------10---8---------12---7---0h1p0h1p0h1p0h3p0h3p0h3p0h3p0-o||
C||--0-0-0-0---0---0-0-0-0----0---0-0-0-0----0---0--------------------------------||
     - - - -   -   - - - -    -   - - - -    -   -
Padge
D||-------------------------------------------------------------------------------||
A||o-----------------------------------------------------------------------------o||
F||-------------------------------------------------------------------------------||
C||----------7---5---------8----7---------10---7----------------------------------||
G||o-----------------------------------------------0h1p0h1p0h1p0h3p0h3p0h3p0h3p0-o||
C||--0-0-0-0---0---0-0-0-0----0---0-0-0-0----0---0--------------------------------||
     - - - -   -   - - - -    -   - - - -    -   -
-"(I!!!) Take a step, TO THE LEFT! (NOW YOU SEE ME!!!)
-...(TEARS!!!) Start to fall, AS YOU CRAWL! (IN HIS APARTMENT!!!)


D||----------------------------------------------------------------------------||
A||o--------------------------------------------------------------------------o||
F||----------------------------------------------------------------------------||
C||----------------------------------------------------------------------------||
G||o-0-0-0-0-------0-0-0-0--------0-0-0-0-------0h1p0h1p0h1p0h3p0h3p0h3p0h3p0-o||
C||--0-0-0-0-------0-0-0-0--------0-0-0-0--------------------------------------||
     - - - -       - - - -        - - - -
D||----------------------------------------------------------------------------||
A||o--------------------------------------------------------------------------o||
F||----------------------------------------------------------------------------||
C||----------8\7~~---------10\7~~---------5/7~~--------------------------------||
G||o-0-0-0-0-6\5~~-0-0-0-0--8\5~~-0-0-0-0-3/5~~-0h1p0h1p0h1p0h3p0h3p0h3p0h3p0-o||
C||--0-0-0-0-------0-0-0-0--------0-0-0-0--------------------------------------||
     - - - -       - - - -        - - - -
-...(YOU!!!) screamed his name, AS I CAME! (IN YOUR DIRECTION!!!)
-...(FISTS!!!) Start to fly, SAY GOODBYE! (THERE'S NO EXCUSES!!!)"


-Pre Chorus-
Matt
D|---------------------------------------------------------------------------------|
A|---------------------------------------------------------------------------------|
F|---------------------------------------------------------------------------------|
C|-7-------7---------------5-------5---------7-------7--------------8---8---8---8--|
G|------------------------------------------------------------------8---8---8---8--|
C|---0-0-0---0-0-0-000-000---0-0-0---0-0-0-0---0-0-0---0-0-000-000--8---8---8---8--|
     - - -   - - - --- ---   - - -   - - - -   - - -   - - --- ---
Padge
D|---------------------------------------------------------------------------------|
A|------------------------------------------------------------------11--11--11--11-|
F|------------------------------------------------------------------10--10--10--10-|
C|-3-------3---------------2-------2---------3-------3--------------8---8---8---8--|
G|------------------------------------------------------------------8---8---8---8--|
C|---0-0-0---0-0-0-000-000---0-0-0---0-0-0-0---0-0-0---0-0-000-000--8---8---8---8--|
     - - -   - - - --- ---   - - -   - - - -   - - -   - - --- ---
"I LOVED YOU! (I hate you) YOU HURT ME! (I loved you) I LOVED YOU! YOU! HURT! ME! BAD!

...GO!!!"

-Chorus-
D|-------------------------------------------------------------------------------|
A|-------------------------------------------------------------------------------|
F|-------------------------------------------------------------------------------|
C|-7p0-0-0-7p0-0-0-----------5p0-0-0-5p0-0-0-----------7p0-0-0-7p0-0-0-----------|
G|-7p0-0-0-7p0-0-0-0-000-000-5p0-0-0-5p0-0-0-0-0-0~-0~-7p0-0-0-7p0-0-0-0-000-000-|
C|-7p0-0-0-7p0-0-0-0-000-000-5p0-0-0-5p0-0-0-0-0-0~-0~-7p0-0-0-7p0-0-0-0-000-000-|
                   - --- ---                 - - -  -                  - --- ---
"(Your Words!) Bury meee, of what I used to beee. I can't...

D|-------------------------------------|
A|-------------------------------------|
F|-------------------------------------|
C|-------------------------------------|
G|-------------------------------------|
C|-88888-77777-55555-77777-55555-33333-|
...Erase all those things I've seen...

D|-------------------------------------------------------------------------------|
A|-------------------------------------------------------------------------------|
F|-------------------------------------------------------------------------------|
C|-7p0-0-0-7p0-0-0-----------5p0-0-0-5p0-0-0-----------7p0-0-0-7p0-0-0-----------|
G|-7p0-0-0-7p0-0-0-0-000-000-5p0-0-0-5p0-0-0-0-0-0~-0~-7p0-0-0-7p0-0-0-0-000-000-|
C|-7p0-0-0-7p0-0-0-0-000-000-5p0-0-0-5p0-0-0-0-0-0~-0~-7p0-0-0-7p0-0-0-0-000-000-|
                   - --- ---                 - - -  -                  - --- ---
...(Your Heart!) Smothers meee, now it's hard to breeeathe. I can't...

D|-------------------------------|
A|-------------------------------|
F|-------------------------------|
C|-8--7--5--7--5--3--0~~~~~~~~---|
G|-8--7--5--7--5--3--0~~~~~~~~-x-|
C|-8--7--5--7--5--3--0~~~~~~~~-x-|
...Erase all of my memories"


-Solo-
Padge
|-22b===whammybend====r-------------------------------------------------|
|-----------------------------------------------------------------15----|
|-----------------------------------------------14-15-17-14-15-17----17-|
|--------------------------14-15-17-15-14-15-17-------------------------|
|-----------------------17----------------------------------------------|
|-----------------------------------------------------------------------|

D|----------------------15-17-15-13-15-17-15-13-15-|
A|-15-15-17-18-15-17-18----------------------------|
F|-------------------------------------------------|
C|-------------------------------------------------|
G|-------------------------------------------------|
C|-------------------------------------------------|

D|-17-17-17-17-17-17-17-17-15-15-15-15-15-15-15-15-18-18-18-18-18-18-18-18-|
A|-------------------------------------------------------------------------|
F|-------------------------------------------------------------------------|
C|-------------------------------------------------------------------------|
G|-------------------------------------------------------------------------|
C|-------------------------------------------------------------------------|

D|-17-17-17-17-17-17-17-17-17-17-17-17-17-17-17-17-15-15-15-15-15-15-15-15-|
A|-------------------------------------------------------------------------|
F|-------------------------------------------------------------------------|
C|-------------------------------------------------------------------------|
G|-------------------------------------------------------------------------|
C|-------------------------------------------------------------------------|

D|-12-12-12-12-12-12-12-12-13-13-13-13-13-13-13-13-|
A|-------------------------------------------------|
F|-------------------------------------------------|
C|-------------------------------------------------|
G|-------------------------------------------------|
C|-------------------------------------------------|
-Matt Under Solo-
D|-----------------------------------------------------------------------------|
A|-----------------------------------------------------------------------------|
F|-----------------------------------------------------------------------------|
C|-----------------------------------------------------------------------------|
G|---------8---7---------10---8---------12---7---0h1p0h1p0h1p0h3p0h3p0h3p0h3p0-|
C|-0-0-0-0---0---0-0-0-0----0---0-0-0-0----0---0-------------------------------|
   - - - -   -   - - - -    -   - - - -    -   -
D|------------------------------------------------------|
A|------------------------------------------------------|
F|------------------------------------------------------|
C|------------------------------------------------------|
G|---------8---7---------10---8---------12---7--x\\\\\\-|
C|-0-0-0-0---0---0-0-0-0----0---0-0-0-0----0----x\\\\\\-|
   - - - -   -   - - - -    -   - - - -    -
D|-----------------------------------------------------------|
A|-----------------------------------------------------------|
F|-----------------------------------------------------------|
C|-0---7---5---3---8---7---5h7p5-7-5------0-0--2-2--3-3--5-5-|
G|-0---------------------------------7-8--0-0--2-2--3-3--5-5-|
C|-0-0---0---0---0---0---0----------------0-0--2-2--3-3--5-5-|
     -   -   -   -   -   -       - - - -
D|-----------------------------------------------------------|
A|-----------------------------------------------------------|
F|-----------------------------------------------------------|
C|-0---7---5---3---8---7---5h7p5-7-5------0-0--2-2--3-3--5-5-|
G|-0---------------------------------7-8--0-0--2-2--3-3--5-5-|
C|-0-0---0---0---0---0---0----------------0-0--2-2--3-3--5-5-|
     -   -   -   -   -   -       - - - -

Matt
D|----------------------------------------------------|
A|----------------------------------------------------|
F|----------------------------------------------------|
C|-0---7p0-5p0-3p0--8p0-7p0-5h7p5--0-0--2-2--3-3--5-5-|
G|-0-------------------------------0-0--2-2--3-3--5-5-|
C|-0-0-----------------------------0-0--2-2--3-3--5-5-|
     -
Padge
D|----------------------------------------------------|
A|----------------------------------------------------|
F|----------------------------------------------------|
C|-0-------------------------------0-0--2-2--3-3--5-5-|
G|-0---8p0-7p0-5p0-10p0-8p0-7h8p7--0-0--2-2--3-3--5-5-|
C|-0-0-----------------------------0-0--2-2--3-3--5-5-|
     -
"Whoaaaaaooohhhh Oh Ohh...

Matt
D|----------------------------------------------------|
A|----------------------------------------------------|
F|----------------------------------------------------|
C|-0---7p0-5p0-3p0--8p0-7p0-5h7p5--0-0--2-2--3-3--5-5-|
G|-0-------------------------------0-0--2-2--3-3--5-5-|
C|-0-0-----------------------------0-0--2-2--3-3--5-5-|
     -
Padge
D|----------------------------------------------------|
A|----------------------------------------------------|
F|----------------------------------------------------|
C|-0-------------------------------0-0--2-2--3-3--5-5-|
G|-0---8p0-7p0-5p0-10p0-8p0-7h8p7--0-0--2-2--3-3--5-5-|
C|-0-0-----------------------------0-0--2-2--3-3--5-5-|
     -
...Whoaaaaaooohhhh Oh Ohh"


"GET UP!!!"

-Breakdown-
Matt
D|------------------------------------------------------------------------------------|
A|------------------------------------10-8~------------------------------------10-11~-|
F|------------------------------------------------------------------------------------|
C|-8p0~~~~-8p0~~~~~~~~~~~~-8p0~~~~-/8-------8p0~~~~-8p0~~~~~~~~~~~~-8p0~~~~-/8--------|
G|-8p0~~~~-8p0~~~~~~~~~~~~-8p0~~~~----------8p0~~~~-8p0~~~~~~~~~~~~-8p0~~~~-----------|
C|-8p0~~~~-8p0~~~~~~~~~~~~-8p0~~~~----------8p0~~~~-8p0~~~~~~~~~~~~-8p0~~~~-----------|
   -       -               -                -       -               -
Padge
D|------------------------------------------------------------------------------------|
A|------------------------------------------------------------------------------------|
F|------------------------------------10-9~-------------------------------------------|
C|-8p0~~~~-8p0~~~~~~~~~~~~-8p0~~~~-/8-------8p0~~~~-8p0~~~~~~~~~~~~-8p0~~~~-/8-10-12~-|
G|-8p0~~~~-8p0~~~~~~~~~~~~-8p0~~~~----------8p0~~~~-8p0~~~~~~~~~~~~-8p0~~~~-----------|
C|-8p0~~~~-8p0~~~~~~~~~~~~-8p0~~~~----------8p0~~~~-8p0~~~~~~~~~~~~-8p0~~~~-----------|
   -       -               -                -       -               -

Matt
D|-------------------------------------------------------------------------------------|
A|------------------------------------10-8~------------------------------------10-11*~-|
F|-------------------------------------------------------------------------------------|
C|-8p0~~~~-8p0~~~~~~~~~~~~-8p0~~~~-/8-------8p0~~~~-8p0~~~~~~~~~~~~-8p0~~~~-/8---------|
G|-8p0~~~~-8p0~~~~~~~~~~~~-8p0~~~~----------8p0~~~~-8p0~~~~~~~~~~~~-8p0~~~~------------|
C|-8p0~~~~-8p0~~~~~~~~~~~~-8p0~~~~----------8p0~~~~-8p0~~~~~~~~~~~~-8p0~~~~------------|
   -       -               -                -       -               -
Padge
D|-------------------------------------------------------------------------------------|
A|-------------------------------------------------------------------------------------|
F|------------------------------------10-9~--------------------------------------------|
C|-8p0~~~~-8p0~0-0-0-0-0-0-8p0~~~~-/8-------8p0~~~~-8p0~0-0-0-0-0-0-8p0~~~~-/8-10-12*~-|
G|-8p0~~~~-8p0~0-0-0-0-0-0-8p0~~~~----------8p0~~~~-8p0~0-0-0-0-0-0-8p0~~~~------------|
C|-8p0~~~~-8p0~0-0-0-0-0-0-8p0~~~~----------8p0~~~~-8p0~0-0-0-0-0-0-8p0~~~~------------|
   -       -               -                -       -               -


-Pre Chorus-
Matt
D|----------------------------------------------------------------------------------------|
A|----------------------------------------------------------------------------------------|
F|----------------------------------------------------------------------------------------|
C|-7-------7---------------5-------5---------7-------7------------5-7-5-7~-5-7-5-7~-7p5p3-|
G|----------------------------------------------------------------------------------------|
C|---0-0-0---0-0-0-000-000---0-0-0---0-0-0-0---0-0-0---0-0-000-000------------------------|
     - - -   - - - --- ---   - - -   - - - -   - - -   - - --- ---
Padge
D|----------------------------------------------------------------------------------------|
A|----------------------------------------------------------------------------------------|
F|----------------------------------------------------------------------------------------|
C|-3-------3---------------2-------2---------3-------3------------2-3-2-3~-2-3-2-3~-3p2p0-|
G|----------------------------------------------------------------------------------------|
C|---0-0-0---0-0-0-000-000---0-0-0---0-0-0-0---0-0-0---0-0-000-000------------------------|
     - - -   - - - --- ---   - - -   - - - -   - - -   - - --- ---


-Chorus-
Matt & Padge
D|-------------------------------------------------------------------------------|
A|-------------------------------------------------------------------------------|
F|-------------------------------------------------------------------------------|
C|-7p0-0-0-7p0-0-0-----------5p0-0-0-5p0-0-0-----------7p0-0-0-7p0-0-0-----------|
G|-7p0-0-0-7p0-0-0-0-000-000-5p0-0-0-5p0-0-0-0-0-0~-0~-7p0-0-0-7p0-0-0-0-000-000-|
C|-7p0-0-0-7p0-0-0-0-000-000-5p0-0-0-5p0-0-0-0-0-0~-0~-7p0-0-0-7p0-0-0-0-000-000-|
                   - --- ---                 - - -  -                  - --- ---
"(Your Words!) Bury meee, of what I used to beee. I can't...

D|-------------------------------------|
A|-------------------------------------|
F|-------------------------------------|
C|-------------------------------------|
G|-------------------------------------|
C|-88888-77777-55555-77777-55555-33333-|
...Erase all those things I've seen...

D|-------------------------------------------------------------------------------|
A|-------------------------------------------------------------------------------|
F|-------------------------------------------------------------------------------|
C|-7p0-0-0-7p0-0-0-----------5p0-0-0-5p0-0-0-----------7p0-0-0-7p0-0-0-----------|
G|-7p0-0-0-7p0-0-0-0-000-000-5p0-0-0-5p0-0-0-0-0-0~-0~-7p0-0-0-7p0-0-0-0-000-000-|
C|-7p0-0-0-7p0-0-0-0-000-000-5p0-0-0-5p0-0-0-0-0-0~-0~-7p0-0-0-7p0-0-0-0-000-000-|
                   - --- ---                 - - -  -                  - --- ---
...(Your Heart!) Smothers meee, now it's hard to breeeathe. I can't...

D|----------------------------------------------------------------------------------|
A|----------------------------------------------------------------------------------|
F|----------------------------------------------------------------------------------|
C|----------------------------------------------------------------------------------|
G|----------------------------------------------------------------------------------|
C|-88888-77777-55555-77777-55555-33333-10-10-10-10-10-88888-77777-88888-77777-55555-|
...Erase all of my memories, (ERASE ALL OF MY MEMORIES OF YOU!!!)"


Matt
D|-------------------------------------------------------------------|
A|-------------------------------------------------------------------|
F|-------------------------------------------------------------------|
C|-------------------------------------------------------------------|
G|---------8---7~---------10---8~---------12---7--3-1-0-1-8-7-10-7-0-|
C|-0-0-0-0---0----0-0-0-0----0----0-0-0-0----0----3-1-0-1-8-7-10-7-0-|
   - - - -   -    - - - -    -    - - - -    -    - - - - - - -  -
D|-------------------------------------------------------------------|
A|-------------------------------------------------------------------|
F|-------------------------------------------------------------------|
C|---------7---5~---------8----7~---------10---7---------------------|
G|------------------------------------------------3-1-0-1-8-7-10-7-0-|
C|-0-0-0-0---0----0-0-0-0----0----0-0-0-0----0----3-1-0-1-8-7-10-7-0-|
   - - - -   -    - - - -    -    - - - -    -    - - - - - - -  -
Tap to rate this tab
 
# A B C D E F G H I J K L M N O P Q R S T U V W X Y Z