Song name
# A B C D E F G H I J K L M N O P Q R S T U V W X Y Z

Bullet For My Valentine - Who Do You Think You Are tab

I can only do Matts part
sorry about the x12 and x8 its just easier to tab it that way

d-----
a-----
f-----
C--0--
G--0--
C--0--
intro``````````````````````````````````````````````````````````````````
d----------------------------------------------------------------------|
a----------------------------------------------------------------------|
f----------------------------------------------------------------------|
C----------------------------------------------------------------------|
G---3h5----3h5-----3h5----3h5------3h5------3h6----3h5-----3h5-----3h5-|
C------000-----000-----00------000------000-----00-----000-----000-----|
```````````````````
d--------------------|
a--------------------|
f--tremelo picking---|
C--palm muted--------|
G--2-4-3-5-5-7-7-9---|
C--------------------|x6
verse
d-------------------------------------------------------------------------|
a-------------------------------------------------------------------------|
f-------------------------------------------------------------------------|
C-------------------------------------------------------------------------|
G--3h5-----3h5-3h5-----3h5-----3h5-----3h5----3h5-----3h5-----3h6----3h5--|
C------000-----------------000-----000-----00-----000-----000-----00------|x4
every time after it ends with
d--------------------|
a--------------------|
f--tremelo picking---|
C--palm muted--------|
G--2-4-3-5-5-7-7-9---|
C--------------------|

d-----
a-----
f-----
C--0--
G--0--
C--0--
Chorus
d------------------------------------------------|
a------------------------------------------------|
f--7-----------7-------------7-------------------|
C--x-----------x-------------x---------3----5----|
G--5x12--3-----5x12-7---8----5x12--3---1x8--3x8--|
C--------3x12-------7x8-8x8--------3x12----------|x2
intro x2
verse x2
chorus x2
riff 4
d-----------|
a-----------|
f-----------|
C--3---5----|
G--1x8-3x8--|
C-----------|
Breakdown
d---------------------------------------------------------------------7-8-|
a-------5-6------5-6----5-6---5-6-----5-6-----5-6-----5-6---5-6---5-6-----|
f--3/7~-----7~-------7~-----7-----5~------7~------7~------7-----7---------|
C-------------------------------------------------------------------------|
G-------------------------------------------------------------------------|
C-------------------------------------------------------------------------|

d----
a----
f-7~-
C----
G----
C----x2
behind solo
not really sure what he does think its this
d----------------------------------------------|
a----------------------------------------------|
f----------------------------------------------|
C-------------------------------------3---5----|
G-0-----------7-----------5-----------1x8-3x8--|
C-0--00000000-7--77777777-5--55555555----------|x2
intro
chorus x2
riff 4 x2
intro x4

ends with
d---
a---
f---
C-0-
G-0-
C-0-
Tap to rate this tab
# A B C D E F G H I J K L M N O P Q R S T U V W X Y Z