Song name
# A B C D E F G H I J K L M N O P Q R S T U V W X Y Z

Bullet For My Valentine - Four Words To Choke Upon tab

My First Song I Have Tabbed. Please Rate Or Leave Comments.

Artist: Bullet For My Valentine
Album: The Poison
Title: 4 Words To Choke Upon

Guitar 1: Matt (CGCFAD)
Guitar 2: Padge (CGCFAD)

Keys:
~ = Let It Ring
* = Pinch/Artificial Harmonic
x = Plam Mute
v = Vibrato
h = Hammer On
p = Pull Off
/ = Slide Down
\ = Slide Down
= = Pickslide
tp = Tremolo Picking
tr = Trill

Intro x2
Guitar 1
D|---------------------------------------------------------------------|
A|---------------------------------------------------------------------|
F|---------------------------------------------------------------------|
C|-0~~~~~~~~~~~~~~~~~~~~~~~~~~~~~~~~~~~~~~~~~~~~~~~~~~~~~~~~~~~~~~~~~~~|
G|-0~~~~~~~~~~~~~~~~~~~~~~~~~~~~~~~~~~~~~~~~~~~~~~~~~~~~~~~~~~~~~~~~~~~|
C|-0~~~~~~~~~~~~~~~~~~~~~~~~~~~~~~~~~~~~~~~~~~~~~~~~~~~~~~~~~~~~~~~~~~~|

Guitar 2
D|-----17----17--17----18----18--18----17----17--17----18----18--18----|
A|-1515--1515--15--1515--1515--15--1515--1515--15--1515--1515--15------|
F|---------------------------------------------------------------------|
C|---------------------------------------------------------------------|
G|---------------------------------------------------------------------|
C|---------------------------------------------------------------------|

Guitar 1
D|---------------------------------------------------------------------|
A|---------------------------------------------------------------------|
F|---------------------------------------------------------------------|
C|-0~~~~~~~~~~~~~~~====================================================|
G|-0~~~~~~~~~~~~~~~====================================================|
C|-0~~~~~~~~~~~~~~~====================================================|

Guitar 2
D|-----17----17--17----18----18--18----17----17--17----20----20--20----|
A|-1515--1515--15--1515--1515--15--1515--1515--15--1515--1515--15------|
F|---------------------------------------------------------------------|
C|---------------------------------------------------------------------|
G|---------------------------------------------------------------------|
C|---------------------------------------------------------------------|

Intro To Verse
Guitar 1
D|-------------------------------|
A|-------------------------------|
F|-------------------------------|
C|-0-1-0--3--0-1-0--3--0-1-0--3~~|
G|-0-1-0-----0-1-0-----0-1-0--3~~|
C|-0-1-0-----0-1-0-----0-1-0--3~~|

Guitar 2
D|-------------------------------|
A|-------------------------------|
F|-------------------------------|
C|-0-1-0--3--0-1-0--3--0-1-0--7~~|
G|-0-1-0-----0-1-0-----0-1-0-----|
C|-0-1-0-----0-1-0-----0-1-0-----|
   x x x  *  x x x  *  x x x

Verse
Guitar 1
D|--------------------------------------------------------------------------|
A|--------------------------------------------------------------------------|
F|--------------------------------------------------------------------------|
C|------------------------1-00--------------------1-00--------------12\-----|
G|------------------------1-00--------------------1-00--------------12\-----|
C|------------------------1-00--------------------1-00--------------12\-----|
                          x xx                    x xx

Guitar 2
D|--------------------------------------------------------------------------|
A|---10--10-10---11--11-11---10--10-10---11--11-11---10--10-10---11--11-11--|
F|-77--77--7---77--77--7---77--77--7---77--77--7---77--77--7---77--77--7----|
C|--------------------------------------------------------------------------|
G|--------------------------------------------------------------------------|
C|--------------------------------------------------------------------------|

Intro To Verse

Verse

Intro To Chorus
Guitar 1
D|---------------------------------|
A|---------------------------------|
F|---------------------------------|
C|-0-1-0--3--0-1-0--3--0-1-0--3~~~~|
G|-0-1-0-----0-1-0-----0-1-0--3~~~~|
C|-0-1-0-----0-1-0-----0-1-0--3~~~~|
   x x x  *  x x x  *  x x x

Guitar 2
D|---------------------------------|
A|---------------------------------|
F|---------------------------------|
C|-0-1-0--3--0-1-0--3--0-1-0--3~~~~|
G|-0-1-0-----0-1-0-----0-1-0--3~~~~|
C|-0-1-0-----0-1-0-----0-1-0--3~~~~|
   x x x  *  x x x  *  x x x

Chorus
Guitar 1
D|-----------------------------------------------------------|
A|-----------------------------------------------------------|
F|-----------------------------------------------------------|
C|-7-7-7-7-7-7-7-7-7-7-7-7-8-8-8-8-8-8-8-8-8-8-7-7-7-3-3-3---|
G|-5-5-5-5-5-5-5-5-5-5-5-5-8-8-8-8-8-8-8-8-8-8-7-7-7-3-3-3---|
C|-0-0-0-0-0-0-0-0-0-0-0-0-8-8-8-8-8-8-8-8-8-8-7-7-7-3-3-3---|

Guitar 2
D|---------------------------------------------------------------------------|
A|---------------------------------------------------------------------------|
F|---------------------------------------------------------------------------|
C|---------------------------------------------------------------------------|
G|-8-5-0-7-3-0-8-5-0-7-3-0-8-5-8-5-8-5-0-7-3-0-8-5-0-7-3-0--3~~~~~~~~~~~~~~~-|
C|----------------------------------------------------------3~~~~~~~~~~~~~~~-|
 ap|-------------------------------------------------------------------------|

Guitar 1
D|--------------------------------------------------------------|
A|--------------------------------------------------------------|
F|--------------------------------------------------------------|
C|-7-7-7-7-7-7-7-7-7-7-7-7-8-8-8-8-8-8-8-8-8-8-10-10-10-3-3-3---|
G|-5-5-5-5-5-5-5-5-5-5-5-5-8-8-8-8-8-8-8-8-8-8-10-10-10-3-3-3---|
C|-0-0-0-0-0-0-0-0-0-0-0-0-8-8-8-8-8-8-8-8-8-8-10-10-10-3-3-3---|

Guitar 2
D|---------------------------------------------------------------------------|
A|---------------------------------------------------------------------------|
F|---------------------------------------------------------------------------|
C|---------------------------------------------------------------------------|
G|-8-5-0-7-3-0-8-5-0-7-3-0-8-5-8-5-8-5-0-7-3-0-8-5-0-7-3-0--3~~~~~~~~~~~~~~~-|
C|----------------------------------------------------------3~~~~~~~~~~~~~~~-|
 ap|-------------------------------------------------------------------------|

Guitar 1
D|---------------------------------------------------------------------------|
A|---------------------------------------------------------------------------|
F|---------------------------------------------------------------------------|
C|-7-7-7-7-7-7-7-7-7-7-7-7-8-8-8-8-8-8-8-8-8-8-7~~~~~~~~~~~~-3~~~~~~~~~~~~~~-|
G|-5-5-5-5-5-5-5-5-5-5-5-5-8-8-8-8-8-8-8-8-8-8-7~~~~~~~~~~~~-3~~~~~~~~~~~~~~-|
C|-0-0-0-0-0-0-0-0-0-0-0-0-8-8-8-8-8-8-8-8-8-8-7~~~~~~~~~~~~-3~~~~~~~~~~~~~~-|

Guitar 2
D|--------------------------------------------------------------------------|
A|--------------------------------------------------------------------------|
F|-/10---------------------12------------------10------------9--------------|
C|--------------------------------------------------------------------------|
G|--------------------------------------------------------------------------|
C|--------------------------------------------------------------------------|
    tp                     tp                  tp            tp

Guitar 1
D|---------------------------------------------------------------------------|
A|---------------------------------------------------------------------------|
F|------------------------15~~~~~~~~~~~~~~~~~--13~~~~~~~~~~--12~~~~~~~~~~~~~-|
C|-7-7-7-7-7-7-7-7-7-7-7-----------------------------------------------------|
G|-5-5-5-5-5-5-5-5-5-5-5-----------------------------------------------------|
C|-0-0-0-0-0-0-0-0-0-0-0-----------------------------------------------------|
                           v                    v             v

Guitar 2
D|---------------------------------------------------------------------------|
A|---------------------------------------------------------------------------|
F|-10---------------------12~~~~~~~~~~~~~~~~~--10~~~~~~~~~~--9~~~~~~~~~~~~~~-|
C|---------------------------------------------------------------------------|
G|---------------------------------------------------------------------------|
C|---------------------------------------------------------------------------|
   tp                      v                    v            v

Interlude x2
Guitar 1
D|------------------------------------------------------------|
A|------------------------------------------------------------|
F|------------------------------------------------------------|
C|-------1-------1-------2h3-2h3-------1-------1--------------|
G|------------------------------------------------------------|
C|-0-0-0---0-0-0---0-0-0---------0-0-0---0-0-0---0-0-0-4b-----|
   x x x   x x x   x x x         x x x   x x x   x x x

Guitar 2
D|------------------------------------------------------------|
A|------------------------------------------------------------|
F|------------------------------------------------------------|
C|-------3-------3-------3h5-3h5-------3-------3--------------|
G|------------------------------------------------------------|
C|-0-0-0---0-0-0---0-0-0---------0-0-0---0-0-0---0-0-0-4b-----|
   x x x   x x x   x x x         x x x   x x x   x x x

Intro To Verse

Verse

Intro To Verse

Verse

Intro To Chorus

Chorus

Interlude x2

Breakdown
Guitar 1
D|------------------------------------------------------------|
A|------------------------------------------------------------|
F|------------------------------------------------------------|
C|------------------------------------------------------------|
G|------------------------------------------------------------|
C|----------------------------------------------------12\-----|

Guitar 2
D|------------------------------------------------------------|
A|------------------------------------------------------------|
F|------------------------------------------------------------|
C|------------------------------------------------------------|
G|------------------------------------------------------------|
C|-0-0-0-1-0-0-0-1-0-0-0-1---0-0-0-1-0-0-0-1-0-0-0-1--12\-----|
   x x x   x x x   x x x     x x x   x x x   x x x

Guitar 1
D|----------------------------------------------------|
A|----------------------------------------------------|
F|----------------------------------------------------|
C|----------------------------------------------------|
G|---------------------------=========================|
C|-0-0-0-1-0-0-0-1-0-0-0-1---=========================|
   x x x   x x x   x x x

Guitar 2
D|----------------------------------------------------|
A|----------------------------------------------------|
F|----------------------------------------------------|
C|----------------------------------------------------|
G|----------------------------------------------------|
C|-0-0-0-1-0-0-0-1-0-0-0-1---000-1-000-1-000-1~~~~~~~~|
   x x x   x x x   x x x     xxx   xxx   xxx

Guitar Solo
Guitar 1
D|-13p10-----------13p10h13p10-----13p10h13p10-------------|
A|------11p10h11p10-----------11p10-----------11p10h11p10--|
F|---------------------------------------------------------|  x3
C|---------------------------------------------------------|
G|---------------------------------------------------------|
C|---------------------------------------------------------|

Guitar 2
D|--------------------------|
A|--------------------------|
F|--------------------------|   x2
C|--------------------------|
G|--------------------------|
C|-0-0-0-1-0-0-0-1-0-0-0-1--|
   x x x   x x x   x x x

Guitar 1
D|----------------------------------|
A|----------------------------------|
F|-/7~~~~~~~~~~~--/9~~~~~~~~~~~~~---|
C|----------------------------------|
G|----------------------------------|
C|----------------------------------|

Guitar 2
D|----------------------------------|
A|----------------------------------|
F|-/5~~~~~~~~~~~--/7~~~~~~~~~~~~~---|
C|----------------------------------|
G|----------------------------------|
C|----------------------------------|

Guitar 1
D|----------------------------------|
A|----------------------------------|
F|----------------------------------|
C|-5(7)---3(5)---5(7)---7\----------|
G|----------------------------------|
C|----------------------------------|
    tr     tr     tr

Guitar 2
D|----------------------------------|
A|----------------------------------|
F|----------------------------------|
C|-3(5)---1(3)---3(5)---5\----------|
G|----------------------------------|
C|----------------------------------|
    tr     tr     tr

Guitar 1
D|----------13----------12---|
A|-10-11-10----10-11-10------|
F|---------------------------|   x4
C|---------------------------|
G|---------------------------|
C|---------------------------|

Guitar 2
D|--------------------------|
A|--------------------------|
F|--------------------------|   x2
C|--------------------------|
G|--------------------------|
C|-0-0-0-1-0-0-0-1-0-0-0-2b-|
   x x x   x x x   x x x

Guitar 1
D|-13~~~~~~~~~~--12~~~~~~~~~~--13~~~~~~~~~~--12~~~~~~~~~~--13~~~~~~~~~~|
A|---------------------------------------------------------------------|
F|---------------------------------------------------------------------|
C|---------------------------------------------------------------------|
G|---------------------------------------------------------------------|
C|---------------------------------------------------------------------|
   tp            tp            tp            tp            tp

Guitar 2
D|--------------------------|
A|--------------------------|
F|--------------------------|
C|--------------------------|
G|--------------------------|
C|-0-0-0-1-0-0-0-1-0-0-0-2b-|
   x x x   x x x   x x x

Guitar 1
D|-/22b~~~~~~~~~~~~~~~~----------|
A|-------------------------------|
F|-------------------------------|
C|-------------------------------|
G|-------------------------------|
C|----------------------\7b~~~~~~|

Guitar 2
D|-------------------------------|
A|-------------------------------|
F|-------------------------------|
C|-------------------------------|
G|-------------------------------|
C|-0-0-0-1-0-0-0-1-0-0-0-2b~~~~~~|
   x x x   x x x   x x x

Too Many Times I've Seen It!!!
Rip A Hole Into Our Friendship!!!
Four Words To Choke Upon!!!

Both Guitars
D|--------------------------|
A|--------------------------|
F|--------------------------|
C|-3~~~~~~-2~~~~~~-3~~~~~~--|
G|-3~~~~~~-2~~~~~~-3~~~~~~--|
C|-1~~~~~~-0~~~~~~-3~~~~~~--|

Chorus

Interlude
Guitar 1
D|------------------------------------------------------------|
A|------------------------------------------------------------|
F|------------------------------------------------------------|
C|-------1-------1-------2h3-2h3-------1-------1---------5----|
G|------------------------------------------------------------|
C|-0-0-0---0-0-0---0-0-0---------0-0-0---0-0-0---0-0-0--------|
   x x x   x x x   x x x         x x x   x x x   x x x   *

Guitar 2
D|------------------------------------------------------------|
A|------------------------------------------------------------|
F|-------------------------------------------------------5----|
C|-------3-------3-------3h5-3h5-------3-------3--------------|
G|------------------------------------------------------------|
C|-0-0-0---0-0-0---0-0-0---------0-0-0---0-0-0---0-0-0--------|
   x x x   x x x   x x x         x x x   x x x   x x x   *

Guitar 1
D|-----------------------------------------------------------------|
A|-----------------------------------------------------------------|
F|-----------------------------------------------------------------|
C|-------1-------1-------2h3-2h3-------1-------1-------2h3-2h3~~~~~|
G|-----------------------------------------------------------------|
C|-0-0-0---0-0-0---0-0-0---------0-0-0---0-0-0---0-0-0-------------|
   x x x   x x x   x x x         x x x   x x x   x x x

Guitar 2
D|-----------------------------------------------------------------|
A|-----------------------------------------------------------------|
F|-----------------------------------------------------------------|
C|-------3-------3-------3h5-3h5-------3-------3-------3h5-3h5~~~~~|
G|-----------------------------------------------------------------|
C|-0-0-0---0-0-0---0-0-0---------0-0-0---0-0-0---0-0-0-------------|
   x x x   x x x   x x x         x x x   x x x   x x x

Outro
Both Guitars
D|---------------------------|
A|---------------------------|
F|---------------------------|
C|---------------------------|
G|-0-0-0-0~~~~~~~~~~~~~~~~~~~|
C|-0-0-0-0~~~~~~~~~~~~~~~~~~~|


Thats It Leave Comments!!!
And Rate Please!!!
Tap to rate this tab
# A B C D E F G H I J K L M N O P Q R S T U V W X Y Z