Song name
# A B C D E F G H I J K L M N O P Q R S T U V W X Y Z

Bullet For My Valentine - Begging For Mercy tab

Bullet For My Valentine - Begging For Mercy


I personally can't WAIT for their new album to come out!
Feel free to comment, and please rate!
For questions/further comments: celldweller09@gmail.com

From: Fever (New album)
Tuning: Drop C (CGCFAD)

Key:
\ === Slide Down
/ === Slide Up
* === Palm Mute
h === Hammer-On
p === Pull-Off
b === Bend
~ === Let Note(s) Ring
v === Vibrato

Intro - Guitar 1 (0:00)
D|---------|-------------------------------------|
A|---------|-------------------------------------|
F|---------|-------------------------------------|
C|--8\\\-x1|-------------------------------------|
G|--8\\\---|-3-----3-----3-----3-----3---3h5p3---|
C|--8\\\---|---0-0---0-0---0-0---0-0---0---------|
	       * *   * *   * *   * *   *
D|--------------------------------------------|
A|--------------------------------------------|
F|--------------------------------------------|
C|------------------3h5p3-2h3p2---------------|
G|--3-----3-----3---------------3h5p3---------|
C|----0-0---0-0---0-------------------2h3p2---|
      * *   * *   *
(0:06)
D|--------------------------------------|
A|--------------------------------------|
F|--------------------------------------|
C|--------------------------------------|
G|--3-----3-----3-----3-----3---3h5p3---|
C|----0-0---0-0---0-0---0-0---0---------|
      * *   * *   * *   * *   *
D|--------------------------------------------|
A|--------------------------------------------|
F|------------------------2h3p2---------------|
C|------------------3h5p3---------------------|
G|--3-----3-----3---------------3h5p3---------|
C|----0-0---0-0---0-------------------2h3p2---|
      * *   * *   *
(0:11)
D|--------------------------------------|
A|--------------------------------------|
F|--------------------------------------|
C|--------------------------------------|
G|--3-----3-----3-----3-----3---3h5p3---|
C|----0-0---0-0---0-0---0-0---0---------|
      * *   * *   * *   * *   *
D|--------------------------------------------|
A|--------------------------------------------|
F|--------------------------------------------|
C|------------------3h5p3-2h3p2---------------|
G|--3-----3-----3---------------3h5p3---------|
C|----0-0---0-0---0-------------------2h3p2---|
      * *   * *   *
D|--------------------------------------|
A|--------------------------------------|
F|--------------------------------------|
C|--------------------------------------|
G|--3-----3-----3-----3-----3---3h5p3---|
C|----0-0---0-0---0-0---0-0---0---------|
      * *   * *   * *   * *   *
D|------------------------------------|
A|------------------------------------|
F|------------------------------------|
C|------------------------------------|
G|--3-----3-----3---3-3-3-3-3-3-3-3---|
C|----0-0---0-0---0-------------------|
      * *   * *   *
Verse 1 (x2) - Guitar 1 (0:22 and 0:33)
D|--------------------------------------|
A|--------------------------------------|
F|--------------------------------------|
C|--------------------------------------|
G|--3-----3-----3-----3-----3---3h5p3---|
C|----0-0---0-0---0-0---0-0---0---------|
      * *   * *   * *   * *   *
D|--------------------------------------------|
A|--------------------------------------------|
F|--------------------------------------------|
C|------------------3h5p3-2h3p2---------------|
G|--3-----3-----3---------------3h5p3---------|
C|----0-0---0-0---0-------------------2h3p2---|
      * *   * *   *
D|--------------------------------------|
A|--------------------------------------|
F|--------------------------------------|
C|--------------------------------------|
G|--3-----3-----3-----3-----3---3h5p3---|
C|----0-0---0-0---0-0---0-0---0---------|
      * *   * *   * *   * *   *
D|--------------------------------------------|
A|--------------------------------------------|
F|------------------------2h3p2---------------|
C|------------------3h5p3---------------------|
G|--3-----3-----3---------------3h5p3---------|
C|----0-0---0-0---0-------------------2h3p2---|
      * *   * *   *
Pre-Chorus - Guitar 1 (0:43)
D|----------------------------------|
A|----------------------------------|
F|----------------------------------|
C|----------------------------------|
G|--1-----1-----1-----1-----3---3---|
C|--1-1-1-1-1-1-1-1-1-1-1-1-3-3-3---|
      * *   * *   * *   * *   *
D|----------------------------------|
A|----------------------------------|
F|----------------------------------|
C|----------------------------------|
G|--1-----1-----1-----1-----0---0---|
C|--1-1-1-1-1-1-1-1-1-1-1-1-0-0-0---|
      * *   * *   * *   * *   *
(0:49)
D|--------------------------------------------------------|
A|--------------------------------------------------------|
F|--------------------------------------------------------|
C|--------------------------------------------------------|
G|--1----------1----------1----------1----------3-----3---|
C|--1-11111111-1-11111111-1-11111111-1-11111111-3-333-3---|
      ********   ********   ********   ********   ***
D|------------------------------------------------|
A|------------------------------------------------|
F|------------------------------------------------|
C|------------------------------3-3-3-3-3-3-3-3---|
G|--1----------1----------1-----------------------|
C|--1-11111111-1-11111111-1-111-------------------|
      ********   ********   ***
Chorus 1 (x2) - Guitar 1 (0:54 and 1:05)
D|-------------------------------------------------|
A|-------------------------------------------------|
F|-------------------------------------------------|
C|-----0----0------------------0-------------------|
G|--5b-0-5b-0--0-0-0-0-0-0--5b-0-3-3-3-3-3-3-3-3---|
C|-----0----0--0-0-0-0-0-0-----0-------------------|
	       * * * * * *
D|-------------------------------|
A|-------------------------------|
F|------------------------5~~~---|
C|-----0----0--------3~~~-5~~~---|
G|--5b-0-5b-0--0-0-0-3~~~-3~~~---|
C|-----0----0--0-0-0-3~~~--------|
	       * * *
End Chorus - Guitar 1 (1:16)
D|--------------------------------------|
A|--------------------------------------|
F|--------------------------------------|
C|--------------------------------------|
G|--3-----3-----3-----3-----3---3h5p3---|
C|----0-0---0-0---0-0---0-0---0---------|
      * *   * *   * *   * *   *
D|--------------------------------------------|
A|--------------------------------------------|
F|--------------------------------------------|
C|------------------3h5p3-2h3p2---------------|
G|--3-----3-----3---------------3h5p3---------|
C|----0-0---0-0---0-------------------2h3p2---|
      * *   * *   *
D|--------------------------------------|
A|--------------------------------------|
F|--------------------------------------|
C|--------------------------------------|
G|--3-----3-----3-----3-----3---3h5p3---|
C|----0-0---0-0---0-0---0-0---0---------|
      * *   * *   * *   * *   *
D|------------------------------------|
A|------------------------------------|
F|------------------------------------|
C|------------------------------------|
G|--3-----3-----3---3-3-3-3-3-3-3-3---|
C|----0-0---0-0---0-------------------|
      * *   * *   *
Breakdown - Guitar 1 (1:26)
D|--------------------------------------|
A|--------------------------------------|
F|--------------------------------------|
C|--------------------------------------|
G|--3-----3-----3-----3-----3---3h5p3---|
C|----0-0---0-0---0-0---0-0---0---------|
      * *   * *   * *   * *   *
D|--------------------------------------------|
A|--------------------------------------------|
F|--------------------------------------------|
C|------------------3h5p3-2h3p2---------------|
G|--3-----3-----3---------------3h5p3---------|
C|----0-0---0-0---0-------------------2h3p2---|
      * *   * *   *
D|--------------------------------------|
A|--------------------------------------|
F|--------------------------------------|
C|--------------------------------------|
G|--3-----3-----3-----3-----3---3h5p3---|
C|----0-0---0-0---0-0---0-0---0---------|
      * *   * *   * *   * *   *
D|----------------------|
A|----------------------|
F|----------------------|
C|----------------------|
G|--3-----3-----3---3---|
C|----0-0---0-0---0-----|
      * *   * *   *
Verse 2 (x1) - Guitar 1 (1:36)
D|--------------------------------------|
A|--------------------------------------|
F|--------------------------------------|
C|--------------------------------------|
G|--3-----3-----3-----3-----3---3h5p3---|
C|----0-0---0-0---0-0---0-0---0---------|
      * *   * *   * *   * *   *
D|--------------------------------------------|
A|--------------------------------------------|
F|--------------------------------------------|
C|------------------3h5p3-2h3p2---------------|
G|--3-----3-----3---------------3h5p3---------|
C|----0-0---0-0---0-------------------2h3p2---|
      * *   * *   *
D|--------------------------------------|
A|--------------------------------------|
F|--------------------------------------|
C|--------------------------------------|
G|--3-----3-----3-----3-----3---3h5p3---|
C|----0-0---0-0---0-0---0-0---0---------|
      * *   * *   * *   * *   *
D|--------------------------------------------|
A|--------------------------------------------|
F|------------------------2h3p2---------------|
C|------------------3h5p3---------------------|
G|--3-----3-----3---------------3h5p3---------|
C|----0-0---0-0---0-------------------2h3p2---|
      * *   * *   *
Pre-Chorus - Guitar 1 (1:47)
D|----------------------------------|
A|----------------------------------|
F|----------------------------------|
C|----------------------------------|
G|--1-----1-----1-----1-----3---3---|
C|--1-1-1-1-1-1-1-1-1-1-1-1-3-3-3---|
      * *   * *   * *   * *   *
D|----------------------------------|
A|----------------------------------|
F|----------------------------------|
C|----------------------------------|
G|--1-----1-----1-----1-----0---0---|
C|--1-1-1-1-1-1-1-1-1-1-1-1-0-0-0---|
      * *   * *   * *   * *   *
(1:52)
D|--------------------------------------------------------|
A|--------------------------------------------------------|
F|--------------------------------------------------------|
C|--------------------------------------------------------|
G|--1----------1----------1----------1----------3-----3---|
C|--1-11111111-1-11111111-1-11111111-1-11111111-3-333-3---|
      ********   ********   ********   ********   ***
D|------------------------------------------------|
A|------------------------------------------------|
F|------------------------------------------------|
C|------------------------------3-3-3-3-3-3-3-3---|
G|--1----------1----------1-----------------------|
C|--1-11111111-1-11111111-1-111-------------------|
      ********   ********   ***
Chorus 2 (x2) - Guitar 1 (1:58 and 2:08)
D|-------------------------------------------------|
A|-------------------------------------------------|
F|-------------------------------------------------|
C|-----0----0------------------0-------------------|
G|--5b-0-5b-0--0-0-0-0-0-0--5b-0-3-3-3-3-3-3-3-3---|
C|-----0----0--0-0-0-0-0-0-----0-------------------|
	       * * * * * *
D|-------------------------------|
A|-------------------------------|
F|------------------------5~~~---|
C|-----0----0--------3~~~-5~~~---|
G|--5b-0-5b-0--0-0-0-3~~~-3~~~---|
C|-----0----0--0-0-0-3~~~--------|
	       * * *
Bridge (x2) - Guitar 2 With Wah-Pedal (2:18 and 2:29)
D|-----------------------|--------------------------------------------------|
A|-----------------------|--------------------------------------------------|
F|-----------------------|--------/9v~-------/10v~-------/12v~-------/14v~--|
C|--x\\\-----------------|--0-0-0------0-0-0-------0-0-0-------0-0-0--------|
G|--x\\\Pick Scrape-(x1)-|----*-*--------*-*---------*-*---------*-*--------|
C|--x\\\-----------------|--------------------------------------------------|

D|-----------------------------------------------------------|
A|-----------------------------------------------------------|
F|--------/9v~-------/10v~-------/12v~--12-14-12--10-12-10---|
C|--0-0-0------0-0-0-------0-0-0--------*--*--*---*--*--*----|
G|----*-*--------*-*---------*-*-----------------------------|
C|-----------------------------------------------------------|

Bridge End - Guitar 2 With Wah-Pedal (2:40)
D|---------------------------------------|
A|---------------------------------------|
F|---10~~~~~-----------------------------|
C|-------------x\\\\\\-------------------|
G|-------------x\\\\\\-Long Pick Scrape--|
C|-------------x\\\\\\-------------------|

Vocals followed by Solo (2:51) (still working on it!)

Chorus 3 (x2) - Guitar 1 (3:22 and 3:33)
D|-------------------------------------------------|
A|-------------------------------------------------|
F|-------------------------------------------------|
C|-----0----0------------------0-------------------|
G|--5b-0-5b-0--0-0-0-0-0-0--5b-0-3-3-3-3-3-3-3-3---|
C|-----0----0--0-0-0-0-0-0-----0-------------------|
	       * * * * * *
D|-------------------------------|
A|-------------------------------|
F|------------------------5~~~---|
C|-----0----0--------3~~~-5~~~---|
G|--5b-0-5b-0--0-0-0-3~~~-3~~~---|
C|-----0----0--0-0-0-3~~~--------|
	       * * *
Outro - Guitar 1 (3:43)
D|--------------------------------------|
A|--------------------------------------|
F|--------------------------------------|
C|--------------------------------------|
G|--3-----3-----3-----3-----3---3h5p3---|
C|----0-0---0-0---0-0---0-0---0---------|
      * *   * *   * *   * *   *
D|---------------------------------|
A|---------------------------------|
F|---------------------------------|
C|---------------------------------|
G|--3-----3-----3----(With Wah)----|
C|----0-0---0-0---0--0-0-0-0-0-0---|
      * *   * *   *
D|--------------------------------------|
A|--------------------------------------|
F|--------------------------------------|
C|--------------------------------------|
G|--3-----3-----3-----3-----3---3h5p3---|
C|----0-0---0-0---0-0---0-0---0---------|
      * *   * *   * *   * *   *
D|--------------------------------|
A|--------------------------------|
F|--------------------------------|
C|------------------3-1-3-4-3-1---|
G|--3-----3-----3---3-1-3-4-3-1---|
C|----0-0---0-0---0-3-1-3-4-3-1---|
      * *   * *   *

By: Decyple
(a.k.a. CellDwellin09)
Tap to rate this tab
# A B C D E F G H I J K L M N O P Q R S T U V W X Y Z