Song name
# A B C D E F G H I J K L M N O P Q R S T U V W X Y Z

Bullet For My Valentine - The Poison tab

The Poison
Bullet For My Valentine
The Poison
Drop C- CGCFAD


-Intro-
Matt
D|-0~~~~~~~~~~~~~~~~~~~~~~~~~~~~~~~~~~~~~~~~~~~~~~~~~~~~~~~~~~~~~~~~~~~~~~~|
A|-0~~~~~~~~~~~~~~~~~~~~~~~~~~~~~~~~~~~~~~~~~~~~~~~~~~~~~~~~~~~~~~~~~~~~~~~|
F|-x-----------------------------------------------------------------------|
C|-2~~~~~~~~~~~~~~~~~~~~~~~~~~~~~~~~~~~~~~~~~~~~~~~~~~~~~~~~~~~~~~~~~~~~~~~|
G|-2~~~~~~~~~~~~~~~~~~~~~~~~~~~~~~~~~~~~~~~~~~~~~~~~~~~~~~~~~~~~~~~~~~~~~~~|
C|-2~~~~~~~~~~~~~~~~~~~~~~~~~~~~~~~~~~~~~~~~~~~~~~~~~~~~~~~~~~~~~~~~~~~~~~~|
Padge  T     T      T     T      T         T     T      T     T      T
D|-------------------------------------------------------------------------|
A|-------------------------------------------------------------------------|
F|-------------------------------------------------------------------------|
C|-2h5h9p2h5h10p2h5h9p2h5h10p2h5h10/12-2h5h9p2h5h10p2h5h9p2h5h10p2h5h10/12-|
G|-------------------------------------------------------------------------|
C|-------------------------------------------------------------------------|

Matt
D|-0~~~~~~~~~~~~~~~~~~~~~~~~~~~~~~~~~~~-----------------|
A|-0~~~~~~~~~~~~~~~~~~~~~~~~~~~~~~~~~~~-----------------|
F|-x----------------------------------------------------|
C|-2~~~~~~~~~~~~~~~~~~~~~~~~~~~~~~~~~~~-----------------|
G|-2~~~~~~~~~~~~~~~~~~~~~~~~~~~~~~~~~~~-0-0-0-0-0-0-0-0-|
C|-2~~~~~~~~~~~~~~~~~~~~~~~~~~~~~~~~~~~-0-0-0-0-0-0-0-0-|
                                        - - - - - - - -
Padge  T     T      T     T      T         T     T
D|------------------------------------------------------|
A|------------------------------------------------------|
F|------------------------------------------------------|
C|-2h5h9p2h5h10p2h5h9p2h5h10p2h5h10/12-2h5h9p2h5h10p2h5-|
G|------------------------------------------------------|
C|------------------------------------------------------|

Matt
D|---------------|
A|---------------|
F|-5-4-2---2-----|
C|-------5---5-4-|
G|---------------|
C|---------------|
Padge
D|---------------|
A|---------------|
F|---------------|
C|-7-5-4---4-----|
G|-------7---7-5-|
C|---------------|


-Verse-
Matt & Padge
D|-------------------------------------|
A|-------------------------------------|
F|-5~-------------4-4------------------|
C|-5~-5-5-5-5-5-5-4-4-2~---------------|
G|-3~-3-3-3-3-5-5-2-2-2~-2-2--2-2--2-2-|
C|------------5-5-----2~-2-2--2-2--2-2-|
      - - - -            - -  - -  - -
"NOW! IS YOUR TIME TO DIE!!!

Matt
D|--------------------------------------|
A|--------------------------------------|
F|-5-4-2---2-----4~-4-4-4-4-5-5-5-2-2-2-|
C|-------5---5-4------------------------|
G|--------------------------------------|
C|--------------------------------------|
Padge
D|--------------------------------------|
A|--------------------------------------|
F|--------------------------------------|
C|-7-5-4---4-----5~-5-5-5-5-7-7-7-4-4-4-|
G|-------7---7-5------------------------|
C|--------------------------------------|
            ...We've gathered here to say

Matt
D|---------------------------------|
A|---------------------------------|
F|-------------------5-4-2---2-----|
C|-2~----------------------5---5-4-|
G|-2~-2-2--2-2--2-2----------------|
C|-2~-2-2--2-2--2-2----------------|
      - -  - -  - -
Padge
D----------------------------------|
A|---------------------------------|
F|---------------------------------|
C|-2~----------------7-5-4---4-----|
G|-2~-2-2--2-2--2-2--------7---7-5-|
C|-2~-2-2--2-2--2-2----------------|
      - -  - -  - -
...Goodbye...


Matt & Padge
D|-------------------------------------|
A|-------------------------------------|
F|-5~-------------4-4------------------|
C|-5~-5-5-5-5-5-5-4-4-2~---------------|
G|-3~-3-3-3-3-5-5-2-2-2~-2-2--2-2--2-2-|
C|------------5-5-----2~-2-2--2-2--2-2-|
      - - - -            - -  - -  - -
...NO! MORE! YOU'LL CRY!!!

Matt
D|--------------------------------------|
A|--------------------------------------|
F|-5-4-2---2-----4~-4-4-4-4-5-5-5-2-2-2-|
C|-------5---5-4------------------------|
G|--------------------------------------|
C|--------------------------------------|
Padge
D|--------------------------------------|
A|--------------------------------------|
F|--------------------------------------|
C|-7-5-4---4-----5~-5-5-5-5-7-7-7-4-4-4-|
G|-------7---7-5------------------------|
C|--------------------------------------|
            ...No reason left for you to

Matt
D|-0~~~~~~~~~~~~~~~~~~~~~~~~~~~~~~~~~~~~~~~~~~~~~~~~~~~~|
A|-0~~~~~~~~~~~~~~~~~~~~~~~~~~~~~~~~~~~~~~~~~~~~~~~~~~~~|
F|-x----------------------------------------------------|
C|-2~~~~~~~~~~~~~~~~~~~~~~~~~~~~~~~~~~~~~~~~~~~~~~~~~~~~|
G|-2~~~~~~~~~~~~~~~~~~~~~~~~~~~~~~~~~~~~~~~~~~~~~~~~~~~~|
C|-2~~~~~~~~~~~~~~~~~~~~~~~~~~~~~~~~~~~~~~~~~~~~~~~~~~~~|
Padge  T     T      T     T      T         T     T
D|------------------------------------------------------|
A|------------------------------------------------------|
F|------------------------------------------------------|
C|-2h5h9p2h5h10p2h5h9p2h5h10p2h5h10/12-2h5h9p2h5h10p2h5-|
G|------------------------------------------------------|
C|------------------------------------------------------|
...Fiiiight...

Matt
D|---------------|
A|---------------|
F|-5-4-2---2-----|
C|-------5---5-4-|
G|---------------|
C|---------------|
Padge
D|---------------|
A|---------------|
F|---------------|
C|-7-5-4---4-----|
G|-------7---7-5-|
C|---------------|


Matt & Padge
D|-------------------------------------|
A|-------------------------------------|
F|-5~-------------4-4------------------|
C|-5~-5-5-5-5-5-5-4-4-2~---------------|
G|-3~-3-3-3-3-5-5-2-2-2~-2-2--2-2--2-2-|
C|------------5-5-----2~-2-2--2-2--2-2-|
      - - - -            - -  - -  - -
...FEEL! PAIN! NO MORE!!!

Matt
D|--------------------------------------|
A|--------------------------------------|
F|-5-4-2---2-----4~-4-4-4-4-5-5-5-2-2-2-|
C|-------5---5-4------------------------|
G|--------------------------------------|
C|--------------------------------------|
Padge
D|--------------------------------------|
A|--------------------------------------|
F|--------------------------------------|
C|-7-5-4---4-----5~-5-5-5-5-7-7-7-4-4-4-|
G|-------7---7-5------------------------|
C|--------------------------------------|
            ...Emotions never felt before

Matt
D|---------------------------------|
A|---------------------------------|
F|-------------------5-4-2---2-----|
C|-2~----------------------5---5-4-|
G|-2~-2-2--2-2--2-2----------------|
C|-2~-2-2--2-2--2-2----------------|
      - -  - -  - -
Padge
D----------------------------------|
A|---------------------------------|
F|---------------------------------|
C|-2~----------------7-5-4---4-----|
G|-2~-2-2--2-2--2-2--------7---7-5-|
C|-2~-2-2--2-2--2-2----------------|
      - -  - -  - -

Matt & Padge
D|-------------------------------------|
A|-------------------------------------|
F|-5~-------------4-4------------------|
C|-5~-5-5-5-5-5-5-4-4-2~---------------|
G|-3~-3-3-3-3-5-5-2-2-2~-2-2--2-2--2-2-|
C|------------5-5-----2~-2-2--2-2--2-2-|
      - - - -            - -  - -  - -
...WHERE! DO WE GO!!! (WE GO!!!)

Matt
D|-------------------------------------|
A|-------------------------------------|
F|-5-4-2---2-----4~-4-4-4-4-5-5-5------|
C|-------5---5-4-------------------x-x-|
G|---------------------------------x-x-|
C|---------------------------------x-x-|
Padge
D|-------------------------------------|
A|-------------------------------------|
F|-------------------------------------|
C|-7-5-4---4-----5~-5-5-5-5-7-7-7--x-x-|
G|-------7---7-5-------------------x-x-|
C|---------------------------------x-x-|
            ...SHE'LL NEVER KNOW!!!"


-Chorus-
Matt & Padge
D|-------------------------------------------------|
A|-------------------------------------------------|
F|--------------5~~~~~~~~~~~--------------5-5--4-4-|
C|-2~~~~~~~~~~~-5~~~~~~~~~~~-5~~~~~~~~~~~-5-5--4-4-|
G|-2~~~~~~~~~~~-3~~~~~~~~~~~-5~~~~~~~~~~~-3-3--2-2-|
C|-2~~~~~~~~~~~--------------5~~~~~~~~~~~----------|

"Hoooolding ooon to yoooouuu, to keep from fallin'

Matt
D|------0~~~~-----------------------------------------------|
A|------0~~~~-----------------------------------------------|
F|------------5~~~~~~~~~------------5-5--4-4----------------|
C|-2~~~~~~~~~-5~~~~~~~~~-5~~~~~~~~~-5-5--4-4--2---2---2---2-|
G|-2~~~~~~~~~-3~~~~~~~~~-5~~~~~~~~~-3-3--2-2--2---2---2---2-|
C|-2~~~~~~~~~------------5~~~~~~~~~-----------2-2-2-2-2-2-2-|
Padge                                           -   -   -
D|----------------------------------------------------------|
A|----------------------------------------------------------|
F|------------12~~~~~~~~-7~~~~~~~~~-5-5--4-4----------------|
C|-2~~~~~~~~~-x----------x----------5-5--4-4--2---2---2---2-|
G|-2~~~~~~~~~-10~~~~~~~~-5~~~~~~~~~-3-3--2-2--2---2---2---2-|
C|-2~~~~~~~~~---------------------------------2-2-2-2-2-2-2-|
                                                -   -   -
...Your eyes are closin' nooow, another chapter's ending"

Matt
D|---------------|
A|---------------|
F|-5-4-2---2-----|
C|-------5---5-4-|
G|---------------|
C|---------------|
Padge
D|---------------|
A|---------------|
F|---------------|
C|-7-5-4---4-----|
G|-------7---7-5-|
C|---------------|


-Verse-
Matt & Padge
D|-------------------------------------|
A|-------------------------------------|
F|-5~-------------4-4------------------|
C|-5~-5-5-5-5-5-5-4-4-2~---------------|
G|-3~-3-3-3-3-5-5-2-2-2~-2-2--2-2--2-2-|
C|------------5-5-----2~-2-2--2-2--2-2-|
      - - - -            - -  - -  - -
"HARD! TIMES! WE ALWAYS SAW!!!

Matt
D|--------------------------------------|
A|--------------------------------------|
F|-5-4-2---2-----4~-4-4-4-4-5-5-5-2-2-2-|
C|-------5---5-4------------------------|
G|--------------------------------------|
C|--------------------------------------|
Padge
D|--------------------------------------|
A|--------------------------------------|
F|--------------------------------------|
C|-7-5-4---4-----5~-5-5-5-5-7-7-7-4-4-4-|
G|-------7---7-5------------------------|
C|--------------------------------------|
            ...There's nothing left of you
Matt
D|---------------------------------|
A|---------------------------------|
F|-------------------5-4-2---2-----|
C|-2~----------------------5---5-4-|
G|-2~-2-2--2-2--2-2----------------|
C|-2~-2-2--2-2--2-2----------------|
      - -  - -  - -
Padge
D----------------------------------|
A|---------------------------------|
F|---------------------------------|
C|-2~----------------7-5-4---4-----|
G|-2~-2-2--2-2--2-2--------7---7-5-|
C|-2~-2-2--2-2--2-2----------------|
      - -  - -  - -
...No more...

Matt & Padge
D|-------------------------------------|
A|-------------------------------------|
F|-5~-------------4-4------------------|
C|-5~-5-5-5-5-5-5-4-4-2~---------------|
G|-3~-3-3-3-3-5-5-2-2-2~-2-2--2-2--2-2-|
C|------------5-5-----2~-2-2--2-2--2-2-|
      - - - -            - -  - -  - -
...FEAR! HAS! NO PLACE! (NO PLACE!)

Matt
D|-------------------------------------|
A|-------------------------------------|
F|-5-4-2---2-----4~-4-4-4-4-5-5-5------|
C|-------5---5-4-------------------x-x-|
G|---------------------------------x-x-|
C|---------------------------------x-x-|
Padge
D|-------------------------------------|
A|-------------------------------------|
F|-------------------------------------|
C|-7-5-4---4-----5~-5-5-5-5-7-7-7--x-x-|
G|-------7---7-5-------------------x-x-|
C|---------------------------------x-x-|
             ...COVER HER FACE!!!"


-Chorus-
Matt & Padge
D|-------------------------------------------|
A|-------------------------------------------|
F|------------5~~~~~~~~~------------5-5--4-4-|
C|-2~~~~~~~~~-5~~~~~~~~~-5~~~~~~~~~-5-5--4-4-|
G|-2~~~~~~~~~-3~~~~~~~~~-5~~~~~~~~~-3-3--2-2-|
C|-2~~~~~~~~~------------5~~~~~~~~~----------|
"Hooooolding ooon to yoooouuu, to keep from fallin'

Matt
D|------0~~~~--------------------------------|
A|------0~~~~--------------------------------|
F|------------5~~~~~~~~~------------5-5--4-4-|
C|-2~~~~~~~~~-5~~~~~~~~~-5~~~~~~~~~-5-5--4-4-|
G|-2~~~~~~~~~-3~~~~~~~~~-5~~~~~~~~~-3-3--2-2-|
C|-2~~~~~~~~~------------5~~~~~~~~~----------|
Padge
D|-------------------------------------------|
A|-------------------------------------------|
F|------------12~~~~~~~~-7~~~~~~~~~-5-5--4-4-|
C|-2~~~~~~~~~-x----------x----------5-5--4-4-|
G|-2~~~~~~~~~-10~~~~~~~~-5~~~~~~~~~-3-3--2-2-|
C|-2~~~~~~~~~--------------------------------|
...Your eyes are closin' now, another chapter's ending

Matt
D|--------------------------------------------------|
A|--------------------------------------------------|
F|------------5~~~~~~~~~----------------------------|
C|-2~~~~~~~~~-5~~~~~~~~~-5~~~~~~~~~~~-0~~~~~~~~~~~~-|
G|-2~~~~~~~~~-3~~~~~~~~~-5~~~~~~~~~~~-0~~~~~~~~~~~~-|
C|-2~~~~~~~~~------------5~~~~~~~~~~~-0~~~~~~~~~~~~-|
Padge
D|--------------------------------------------------|
A|--------------------------------------------------|
F|--------------------------------------------------|
C|----4p0-5p4----5p0-4h5----5p0-4p0-5p0-7p0-5p0-4h5-|
G|------------3~---------5~-------------------------|
C|-2~-----------------------------------------------|
...Thiiis is our laaast goodbyyyye (GOODBYE!!!)

Matt
D|--------------------------------------------------|
A|--------------------------------------------------|
F|------------5~~~~~~~~~----------------------------|
C|-2~~~~~~~~~-5~~~~~~~~~-5~~~~~~~~~~~-0~~~~~~~~~~~~-|
G|-2~~~~~~~~~-3~~~~~~~~~-5~~~~~~~~~~~-0~~~~~~~~~~~~-|
C|-2~~~~~~~~~------------5~~~~~~~~~~~-0~~~~~~~~~~~~-|
Padge
D|--------------------------------------------------|
A|--------------------------------------------------|
F|--------------------------------------------------|
C|----4p0-5p4----5p0-4h5----5p0-4p0-5p0-7p0-5p0-4h5-|
G|------------3~---------5~-------------------------|
C|-2~-----------------------------------------------|
...Thiiis is our tiiiime toniiiiiight"

Matt
D|--------------------------------|
A|--------------------------------|
F|------------------5-4-2---2-----|
C|---2---2---2---2--------5---5-4-|
G|---2---2---2---2----------------|
C|-2-2-2-2-2-2-2-2----------------|
   -   -   -   -
Padge
D|--------------------------------|
A|--------------------------------|
F|--------------------------------|
C|---2---2---2---2--7-5-4---4-----|
G|---2---2---2---2--------7---7-5-|
C|-2-2-2-2-2-2-2-2----------------|
   -   -   -   -


-Solo-
Padge
       T      T      T      T
D|------------------------------------------------------------------------------------|
A|-7h8h17p7h8h15p7h8h17p7h8h19p7h8p7--10b-8-10----------------------------------------|
F|---------------------------------------------12-11-12p11-9-11p9----9-----------9b~~-|
C|----------------------------------------------------------------12---12-9-12p9------|
G|------------------------------------------------------------------------------------|
C|------------------------------------------------------------------------------------|

D|-15p12----------------15p12----------------15p12----------------|
A|-------12----17p12----------12----17p12----------12----17p12----|
F|----------12-------12----------12-------12----------12-------12-|
C|----------------------------------------------------------------|
G|----------------------------------------------------------------|
C|----------------------------------------------------------------|

D|-15p12----12--------------------------------------------|
A|-------15----15p12-----12-------------------------17*~~-|
F|-------------------14-----14p12----12-------14p12-------|
C|--------------------------------14----14p12-------------|
G|--------------------------------------------------------|
C|--------------------------------------------------------|

D|----17-15-14-15-14-------------15-17b==-19-15h19p15-------15----------15h19p15-|
A|-12----------------17-15-17/19----------------------17-------17----17----------|
F|-------------------------------------------------------16-------16-------------|
C|-------------------------------------------------------------------------------|
G|-------------------------------------------------------------------------------|
C|-------------------------------------------------------------------------------|

D|----15-----12----14----15----17----19----22p19-19----22p19-19----22p19-22b===-|
A|-17----17--15b==-17b==-18b==-20b==-22b==-------22b==-------22b==--------------|
F|------------------------------------------------------------------------------|
C|------------------------------------------------------------------------------|
G|------------------------------------------------------------------------------|
C|------------------------------------------------------------------------------|
-Matt Under Solo-
D||---------------------------------------------------------------------------------------------||
A||o-------------------------------------------------------------------------------------------o||
F||--5-------5---5-5-------------5---4-------------5-------5---4-4---5-5------------------------||
C||--5-5-5-5-5-5-5-5--2-------2-----------5---5/7--5-5-5-5-5-5-5-5-5-5-5-0-2p0-2p0---0-4p0-4p0--||
G||o-3-3-3-3-3-3-3-3--2-2-2-2-2--------------------3-3-3-3-3-3-2-2-2-3-3-0---------0-0---------o||
C||-------------------2-2-2-2-2-2---2---2---2----------------------------0---------0-0----------||
       - - -   -        - - -   -   -   -   -        - - -   -     -               -


-BREAKDOWN!-
D|----------------------------------------------------------|
A|-6--6--6--6---------------------------------------6-6-6-6-|
F|-9--9--9--9---------------------------------------9-9-9-9-|
C|----------------------------------------------------------|
G|-------------222222--22222222----222222--22222222---------|
C|-------------222222--22222222----222222--22222222---------|
               ------  --------    ------  --------
"HOLDING ONTO YOOOOOUUU!!!!

D|----------------------------------------------|
A|--------------------------------------6-6-6-6-|
F|--------------------------------------9-9-9-9-|
C|----------------------------------------------|
G|-222222--22222222----222222--22222222---------|
C|-222222--22222222----222222--22222222---------|
   ------  --------    ------  --------
                        ...COVER UP HER
D|-------------------------------------------------------------|
A|-------------------------------------------------------------|
F|-------------------------------------------------------------|
C|---------2~---------2~-------2~-------3~---------3~-------3~-|
G|-2-2-2-2-2~-2-2-2-2-2~-2-2-2-2~-3-3-3-3~-3-3-3-3-3~-3-3-3-3~-|
C|-2-2-2-2-2~-2-2-2-2-2~-2-2-2-2~-3-3-3-3~-3-3-3-3-3~-3-3-3-3~-|
   - - - -    - - - -    - - -    - - -    - - - -    - - -
...FAAAAAAACE!!!
D|---------------------------------------|Matt-------------|
A|---------------------------------------|-----------------|
F|---------------------------------------|-----------------|
C|-------5~---------5~-------5~-------3~-|-3-2-----3-2-----|
G|-5-5-5-5~-5-5-5-5-5~-5-5-5-5~-3-3-3-3~-|-----5-3-----5-3-|
C|-5-5-5-5~-5-5-5-5-5~-5-5-5-5~-3-3-3-3~-|-----------------|
   - - -    - - - -    - - -    - - -      - - - - - - - -
                                        D|Padge------------|
                                        A|-----------------|
                                        F|-----------------|
                                        C|-7-5-----7-5-----|
                                        G|-----8-7-----8-7-|
                                        C|-----------------|
                                           - - - - - - - -
D|-------------------------------------------------------------|
A|-------------------------------------------------------------|
F|-------------------------------------------------------------|
C|---------2~---------2~-------2~-------3~---------3~-------3~-|
G|-2-2-2-2-2~-2-2-2-2-2~-2-2-2-2~-3-3-3-3~-3-3-3-3-3~-3-3-3-3~-|
C|-2-2-2-2-2~-2-2-2-2-2~-2-2-2-2~-3-3-3-3~-3-3-3-3-3~-3-3-3-3~-|
   - - - -    - - - -    - - -    - - -    - - - -    - - -
D|---------------------------------------|Matt-------------|
A|---------------------------------------|-----------------|
F|---------------------------------------|-----------------|
C|-------5~---------5~-------5~-------3~-|-3-2-----3-2-----|
G|-5-5-5-5~-5-5-5-5-5~-5-5-5-5~-3-3-3-3~-|-----5-3-----5-3-|
C|-5-5-5-5~-5-5-5-5-5~-5-5-5-5~-3-3-3-3~-|-----------------|
   - - -    - - - -    - - -    - - -      - - - - - - - -
                                        D|Padge------------|
                                        A|-----------------|
                                        F|-----------------|
                                        C|-7-5-----7-5-----|
                                        G|-----8-7-----8-7-|
                                        C|-----------------|
                                           - - - - - - - -
Matt
D|-0~~~~~~~~~~~~~~~~~~~~~~~~~~~~~~~~~~~~~~~~~~~~~~~~~~~~~~~~~~~~~~~~~~~~~~~|
A|-0~~~~~~~~~~~~~~~~~~~~~~~~~~~~~~~~~~~~~~~~~~~~~~~~~~~~~~~~~~~~~~~~~~~~~~~|
F|-x-----------------------------------------------------------------------|
C|-2~~~~~~~~~~~~~~~~~~~~~~~~~~~~~~~~~~~~~~~~~~~~~~~~~~~~~~~~~~~~~~~~~~~~~~~|
G|-2~~~~~~~~~~~~~~~~~~~~~~~~~~~~~~~~~~~~~~~~~~~~~~~~~~~~~~~~~~~~~~~~~~~~~~~|
C|-2~~~~~~~~~~~~~~~~~~~~~~~~~~~~~~~~~~~~~~~~~~~~~~~~~~~~~~~~~~~~~~~~~~~~~~~|
Padge  T     T      T     T      T         T     T      T     T      T
D|-------------------------------------------------------------------------|
A|-------------------------------------------------------------------------|
F|-------------------------------------------------------------------------|
C|-2h5h9p2h5h10p2h5h9p2h5h10p2h5h10/12-2h5h9p2h5h10p2h5h9p2h5h10p2h5h10/12-|
G|-------------------------------------------------------------------------|
C|-------------------------------------------------------------------------|

Matt
D|-0~~~~~~~~~~~~~~~~~~~~~~~~~~~~~~~~~~~~~~~~~~~~~~~~~~---------------------|
A|-0~~~~~~~~~~~~~~~~~~~~~~~~~~~~~~~~~~~~~~~~~~~~~~~~~~---------------------|
F|-x-----------------------------------------------------------------------|
C|-2~~~~~~~~~~~~~~~~~~~~~~~~~~~~~~~~~~~~~~~~~~~~~~~~~~-12\-----------------|
G|-2~~~~~~~~~~~~~~~~~~~~~~~~~~~~~~~~~~~~~~~~~~~~~~~~~~-12\-0-0-0-0-0-0-0-0-|
C|-2~~~~~~~~~~~~~~~~~~~~~~~~~~~~~~~~~~~~~~~~~~~~~~~~~~-12\-0-0-0-0-0-0-0-0-|
                                                           - - - - - - - -
Padge  T     T      T     T      T         T     T      T     T      T
D|-------------------------------------------------------------------------|
A|-------------------------------------------------------------------------|
F|-------------------------------------------------------------------------|
C|-2h5h9p2h5h10p2h5h9p2h5h10p2h5h10/12-2h5h9p2h5h10p2h5h9p2h5h10p2h5h10/12-|
G|-------------------------------------------------------------------------|
C|-------------------------------------------------------------------------|


(The Beautiful Part!)

Padge- Clean
D|------------------------------------|
A|------------------------------------|
F|-------------5~-5-5-5-5-------------|
C|-2~-2-2-2-2--5~-5-5-5-5--5~-5-5-5-5-|
G|-2~-2-2-2-2--3~-3-3-3-3--5~-5-5-5-5-|
C|-2~-2-2-2-2--------------5~-5-5-5-5-|
"Hoooldiiing Ooon to Yooouu"

Matt & Padge- Dist.
D|----------|
A|----------|
F|-5-5--4-4-|
C|-5-5--4-4-|
G|-3-3--2-2-|
C|----------|
TO KEEP FROM FALLIN!!!


-Chorus-
D|-------------------------------------------|
A|-------------------------------------------|
F|------------5~~~~~~~~~------------5-5--4-4-|
C|-2~~~~~~~~~-5~~~~~~~~~-5~~~~~~~~~-5-5--4-4-|
G|-2~~~~~~~~~-3~~~~~~~~~-5~~~~~~~~~-3-3--2-2-|
C|-2~~~~~~~~~------------5~~~~~~~~~----------|
"Hoooolding ooon to yooouuu, to keep from fallin'

Matt
D|------0~~~~--------------------------------|
A|------0~~~~--------------------------------|
F|------------5~~~~~~~~~------------5-5--4-4-|
C|-2~~~~~~~~~-5~~~~~~~~~-5~~~~~~~~~-5-5--4-4-|
G|-2~~~~~~~~~-3~~~~~~~~~-5~~~~~~~~~-3-3--2-2-|
C|-2~~~~~~~~~------------5~~~~~~~~~----------|
Padge
D|-------------------------------------------|
A|-------------------------------------------|
F|------------12~~~~~~~~-7~~~~~~~~~-5-5--4-4-|
C|-2~~~~~~~~~-x----------x----------5-5--4-4-|
G|-2~~~~~~~~~-10~~~~~~~~-5~~~~~~~~~-3-3--2-2-|
C|-2~~~~~~~~~--------------------------------|
...Your eyes are closin' now, another chapter's ending

Matt & Padge
D|--------------------------------------------------|
A|--------------------------------------------------|
F|------------5~~~~~~~~~----------------------------|
C|-2~~~~~~~~~-5~~~~~~~~~-5~~~~~~~~~~~-0~~~~~~~~~~~~-|
G|-2~~~~~~~~~-3~~~~~~~~~-5~~~~~~~~~~~-0~~~~~~~~~~~~-|
C|-2~~~~~~~~~------------5~~~~~~~~~~~-0~~~~~~~~~~~~-|
...Thiiis is our laaast goodbyyyye (GOODBYE!!!)

Matt
D|--------------------------------------------------------|
A|--------------------------------------------------------|
F|------------5~~~~~~~~~--------------4~~~~~~~~~~~~~~~~~~-|
C|-2~~~~~~~~~-5~~~~~~~~~-5~~~~~~~~~~~-4~~~~~~~~~~~~~~~~~~-|
G|-2~~~~~~~~~-3~~~~~~~~~-5~~~~~~~~~~~-2~~~~~~~~~~~~~~~~~~-|
C|-2~~~~~~~~~------------5~~~~~~~~~~~---------------------|
Padge
D|--------------------------------------------------------|
A|--------------------------------------------------------|
F|------------12~~~~~~~~-7~~~~~~~~~~~-4~~~~~~~~~~~~-------|
C|-2~~~~~~~~~-x----------x------------4~~~~~~~~~~~~-------|
G|-2~~~~~~~~~-10~~~~~~~~-5~~~~~~~~~~~-2~~~~~~~~~~~~-x\\\\-|
C|-2~~~~~~~~~---------------------------------------x\\\\-|
...Thiiis is our tiiime toniiiiight

Matt
D|--------------------------------------------------|
A|--------------------------------------------------|
F|------------5~~~~~~~~~----------------------------|
C|-2~~~~~~~~~-5~~~~~~~~~-5~~~~~~~~~~~-0~~~~~~~~~~~~-|
G|-2~~~~~~~~~-3~~~~~~~~~-5~~~~~~~~~~~-0~~~~~~~~~~~~-|
C|-2~~~~~~~~~------------5~~~~~~~~~~~-0~~~~~~~~~~~~-|
Padge
D|--------------------------------------------------|
A|--------------------------------------------------|
F|--------------------------------------------------|
C|----4p0-5p4----5p0-4h5----5p0-4p0-5p0-7p0-5p0-4h5-|
G|------------3~---------5~-------------------------|
C|-2~-----------------------------------------------|
...(GOODBYYYYYYYYYYYYYYYYYYYYE!!!)

Matt
D|--------------------------------------|
A|--------------------------------------|
F|------------5~~~~~~~~~----------------|
C|-2~~~~~~~~~-5~~~~~~~~~-5~~~~~~~~~~~-0-|
G|-2~~~~~~~~~-3~~~~~~~~~-5~~~~~~~~~~~-0-|
C|-2~~~~~~~~~------------5~~~~~~~~~~~-0-|
Padge
D|--------------------------------------|
A|--------------------------------------|
F|--------------------------------------|
C|----4p0-5p4----5p0-4h5----5p0-4p0-5p0-|
G|------------3~---------5~-------------|
C|-2~-----------------------------------|

Matt
D|-----------------|
A|-----------------|
F|-----------------|
C|-3-2-----3-2-----|
G|-----5-3-----5-3-|
C|-----------------|
   - - - - - - - -
Padge
D|-----------------|
A|-----------------|
F|-----------------|
C|-7-5-----7-5-----|
G|-----8-7-----8-7-|
C|-----------------|
   - - - - - - - -
...THIS IS OUR LAST

Matt
D|-----------------------------------------------------------|
A|-----------------------------------------------------------|
F|-----------------------------------------------------------|
C|------7p0-9p7------9p0-7h9------9p0-7p0-9p0-10p0-9p0-7h9p7-|
G|--------------3~-3---------5~-5----------------------------|
C|-2~-2------------------------------------------------------|
Padge
D|-----------------------------------------------------------|
A|-----------------------------------------------------------|
F|-----------------------------------------------------------|
C|------4p0-5p4------5p0-4h5------5p0-4p0-5p0-7p0--5p0-4h5p4-|
G|--------------3~-3---------5~-5----------------------------|
C|-2~-2------------------------------------------------------|
...GOODBYYYYYYYYYYYYEE!!!!"

Matt
D|-----------------------------------------------------------|
A|-----------------------------------------------------------|
F|-----------------------------------------------------------|
C|------7p0-9p7------9p0-7h9------9p0-7p0-9p0-10p0-9p0-7h9p7-|
G|--------------3~-3---------5~-5----------------------------|
C|-2~-2------------------------------------------------------|
Padge
D|-----------------------------------------------------------|
A|-----------------------------------------------------------|
F|-----------------------------------------------------------|
C|------4p0-5p4------5p0-4h5------5p0-4p0-5p0-7p0--5p0-4h5p4-|
G|--------------3~-3---------5~-5----------------------------|
C|-2~-2------------------------------------------------------|

Matt
D|---------------------------------|
A|---------------------------------|
F|------------------5-4-2---2------|
C|---2---2---2---2--------5---5-4\-|
G|---2---2---2---2-----------------|
C|-2-2-2-2-2-2-2-2-----------------|
   -   -   -   -
Padge
D|---------------------------------|
A|---------------------------------|
F|---------------------------------|
C|---2---2---2---2--7-5-4---4------|
G|---2---2---2---2--------7---7-5\-|
C|-2-2-2-2-2-2-2-2-----------------|
   -   -   -   -
Tap to rate this tab
# A B C D E F G H I J K L M N O P Q R S T U V W X Y Z