Song name
# A B C D E F G H I J K L M N O P Q R S T U V W X Y Z

Bullet For My Valentine - Your Betrayal tab

This is my first tab so go easy on me. The song is "your betrayal" by bullet for my 
off of their
unrealesed album fever. This is a really great song and very fun to play.
Any corrections you have please send an email to i4ourwheel247@yahoo.com
     Key
  .  Palm Mute
  t  Tremelo Picking
  /  Slide


Intro  x4 (not sure if its right number of zero's but its the general idea)
D -----------------------------------------------|
A -----------------------------------------------|
F -----------------------------------------------|
C -----------------------------------------------|
G -0-0-0-0-0-0-0-0-0-0-0-----0-0-0-0----0-0-0-0--|
C -0-0-0-0-0-0-0-0-0-0-0-----0-0-0-0----0-0-0-0--|
   . . . . . . . . . . .     . . . .    . . . .
Then

D-------------------------------------|
A-------------------------------------|
F-------------------------------------|
C-------------------------------------|
G----//////////////-------------------|
C---//////////////--------------------|
     (pickslide)

For this part listen to the song for exact pattern
D------------------------------------------------|
A------------------------------------------------|
F------------------------------------------------|
C------------------------------------------------|
G-5t/1t/5t/8t/5t/1t/5t/8t------------------------|
C------------------------------------------------|


D -----------------------------------------------|
A -----------------------------------------------|
F -----------------------------------------------|
C -----------------------------------------------|
G -0-0-0-0-0-0-0-0-0-0-0-----0-0-0-0----0-0-0-0--|
C -0-0-0-0-0-0-0-0-0-0-0-----0-0-0-0----0-0-0-0--|
   . . . . . . . . . . .     . . . .    . . . .

im not quite sure what is played next i think it is on the 3rd and 5th fret

Pre-verse (once again not for sure on the exact numbers listen for pattern)
D -----------------------------------------------|
A -----------------------------------------------|
F -----------------------------------------------|
C -----------------------0~~---------0~----------|0~
G -0-0-0-0-0-0-0-0-0-0-0-0~~-0-0-0-0-0~--0-0-0-0-|0~
C -0-0-0-0-0-0-0-0-0-0-0-0~~-0-0-0-0-0~--0-0-0-0-|0~
   . . . . . . . . . . .     . . . .     . . . .

D ---------------------------------------------------|
A ---------------------------------------------------|
F ---------------------------------------------------|
C -----------------------0~~---------0~----------0~--|
G -0-0-0-0-0-0-0-0-0-0-0-0~~-0-0-0-0-0~--0-0-0-0-0~--|
C -0-0-0-0-0-0-0-0-0-0-0-0~~-0-0-0-0-0~--0-0-0-0-0~--|
   . . . . . . . . . . .     . . . .     . . . .

D -------------------------------------------------------|
A -------------------------------------------------------|
F -------------------------------------------------------|
C ------------------------8~----------8~----------8~-----|
G --------8-8-8-8-8-8-8-8-8~--8-8-8-8-8~--8-8-8-8-8~-----|
C -12-10--8-8-8-8-8-8-8-8-8~--8-8-8-8-8~--8-8-8-8-8~-----|

D -------------------------------------------------------|
A -------------------------------------------------------|
F -------------------------------------------------------|
C -------------------------10~----------10~----------10~-|
G -10-10-10-10-10-10-10-10-10~-10-10-10-10~-10-10-10-10~-|
C -10-10-10-10-10-10-10-10-10~-10-10-10-10~-10-10-10-10~-|

D ---------------------------------------------------|
A ---------------------------------------------------|
F ---------------------------------------------------|
C -----------------------0~~---------0~----------0~--|
G -0-0-0-0-0-0-0-0-0-0-0-0~~-0-0-0-0-0~--0-0-0-0-0~--|
C -0-0-0-0-0-0-0-0-0-0-0-0~~-0-0-0-0-0~--0-0-0-0-0~--|

D ---------------------------------------------------|
A ---------------------------------------------------|
F ---------------------------------------------------|
C -----------------------0~~---------0~----------0~--|
G -0-0-0-0-0-0-0-0-0-0-0-0~~-0-0-0-0-0~--0-0-0-0-0~--|
C -0-0-0-0-0-0-0-0-0-0-0-0~~-0-0-0-0-0~--0-0-0-0-0~--|

D -------------------------------------------------------|
A -------------------------------------------------------|
F -------------------------------------------------------|
C ------------------------8~----------8~----------8~-----|
G --------8-8-8-8-8-8-8-8-8~--8-8-8-8-8~--8-8-8-8-8~-----|
C -12-10--8-8-8-8-8-8-8-8-8~--8-8-8-8-8~--8-8-8-8-8~-----|

D -----------------------------------------------------------------|
A -----------------------------------------------------------------|
F -----------------------------------------------------------------|
C -------------------------10~----------10~----------10~-----------|
G -10-10-10-10-10-10-10-10-10~-10-10-10-10~-10-10-10-10~-12-10-8-7-|
C -10-10-10-10-10-10-10-10-10~-10-10-10-10~-10-10-10-10~-----------|

Verse x4 (not 100% on the notes after the open notes)

D ----------------------------------------|
A ----------------------------------------|
F ----------------------------------------|
C ----------------------------------------|
G -0-0-0-0--------0-0-0-0-----8-7-5-7-5-3-|
C -0-0-0-0--------0-0-0-0-----------------|

This part is "so here we are..."
D -----------------------------------------|
A -----------------------------------------|
F -----------------------------------------|
C -0~~~~-----------------------------------|
G -0~~~~-------------------//////////------|
C -0~~~~-------------------//////////------|
                          (pick slide)
Chorus

D -----------------------------------------------|
A -----------------------------------------------|
F -----------------------------------------------|
C -----------------------0~~---------0~----------|0~
G -0-0-0-0-0-0-0-0-0-0-0-0~~-0-0-0-0-0~--0-0-0-0-|0~
C -0-0-0-0-0-0-0-0-0-0-0-0~~-0-0-0-0-0~--0-0-0-0-|0~
   . . . . . . . . . . .     . . . .     . . . .

D ---------------------------------------------------|
A ---------------------------------------------------|
F ---------------------------------------------------|
C -----------------------0~~---------0~----------0~--|
G -0-0-0-0-0-0-0-0-0-0-0-0~~-0-0-0-0-0~--0-0-0-0-0~--|
C -0-0-0-0-0-0-0-0-0-0-0-0~~-0-0-0-0-0~--0-0-0-0-0~--|
   . . . . . . . . . . .     . . . .     . . . .

D -------------------------------------------------------|
A -------------------------------------------------------|
F -------------------------------------------------------|
C ------------------------8~----------8~----------8~-----|
G --------8-8-8-8-8-8-8-8-8~--8-8-8-8-8~--8-8-8-8-8~-----|
C -12-10--8-8-8-8-8-8-8-8-8~--8-8-8-8-8~--8-8-8-8-8~-----|

D -------------------------------------------------------|
A -------------------------------------------------------|
F -------------------------------------------------------|
C -------------------------10~----------10~----------10~-|
G -10-10-10-10-10-10-10-10-10~-10-10-10-10~-10-10-10-10~-|
C -10-10-10-10-10-10-10-10-10~-10-10-10-10~-10-10-10-10~-|

D ---------------------------------------------------|
A ---------------------------------------------------|
F ---------------------------------------------------|
C -----------------------0~~---------0~----------0~--|
G -0-0-0-0-0-0-0-0-0-0-0-0~~-0-0-0-0-0~--0-0-0-0-0~--|
C -0-0-0-0-0-0-0-0-0-0-0-0~~-0-0-0-0-0~--0-0-0-0-0~--|

D ---------------------------------------------------|
A ---------------------------------------------------|
F ---------------------------------------------------|
C -----------------------0~~---------0~----------0~--|
G -0-0-0-0-0-0-0-0-0-0-0-0~~-0-0-0-0-0~--0-0-0-0-0~--|
C -0-0-0-0-0-0-0-0-0-0-0-0~~-0-0-0-0-0~--0-0-0-0-0~--|

D -------------------------------------------------------|
A -------------------------------------------------------|
F -------------------------------------------------------|
C ------------------------8~----------8~----------8~-----|
G --------8-8-8-8-8-8-8-8-8~--8-8-8-8-8~--8-8-8-8-8~-----|
C -12-10--8-8-8-8-8-8-8-8-8~--8-8-8-8-8~--8-8-8-8-8~-----|

D -------------------------------------------------------------------|
A -------------------------------------------------------------------|
F -------------------------------------------------------------------|
C -------------------------10~----------10~----------10~-------------|
G -10-10-10-10-10-10-10-10-10~-10-10-10-10~-10-10-10-10~--12-10-8-7--|
C -10-10-10-10-10-10-10-10-10~-10-10-10-10~-10-10-10-10~-------------|

Verse 2 X4

D ----------------------------------------|
A ----------------------------------------|
F ----------------------------------------|
C ----------------------------------------|
G -0-0-0-0--------0-0-0-0-----8-7-5-7-5-3-|
C -0-0-0-0--------0-0-0-0-----------------|


"so here we are..."
D -----------------------------------------|
A -----------------------------------------|
F -----------------------------------------|
C -0~~~~-----------------------------------|
G -0~~~~-------------------//////////------|
C -0~~~~-------------------//////////------|
                          (pick slide)

Chorus

D -----------------------------------------------|
A -----------------------------------------------|
F -----------------------------------------------|
C -----------------------0~~---------0~----------|0~
G -0-0-0-0-0-0-0-0-0-0-0-0~~-0-0-0-0-0~--0-0-0-0-|0~
C -0-0-0-0-0-0-0-0-0-0-0-0~~-0-0-0-0-0~--0-0-0-0-|0~
   . . . . . . . . . . .     . . . .     . . . .

D ---------------------------------------------------|
A ---------------------------------------------------|
F ---------------------------------------------------|
C -----------------------0~~---------0~----------0~--|
G -0-0-0-0-0-0-0-0-0-0-0-0~~-0-0-0-0-0~--0-0-0-0-0~--|
C -0-0-0-0-0-0-0-0-0-0-0-0~~-0-0-0-0-0~--0-0-0-0-0~--|
   . . . . . . . . . . .     . . . .     . . . .

D -------------------------------------------------------|
A -------------------------------------------------------|
F -------------------------------------------------------|
C ------------------------8~----------8~----------8~-----|
G --------8-8-8-8-8-8-8-8-8~--8-8-8-8-8~--8-8-8-8-8~-----|
C -12-10--8-8-8-8-8-8-8-8-8~--8-8-8-8-8~--8-8-8-8-8~-----|

D -------------------------------------------------------|
A -------------------------------------------------------|
F -------------------------------------------------------|
C -------------------------10~----------10~----------10~-|
G -10-10-10-10-10-10-10-10-10~-10-10-10-10~-10-10-10-10~-|
C -10-10-10-10-10-10-10-10-10~-10-10-10-10~-10-10-10-10~-|

D ---------------------------------------------------|
A ---------------------------------------------------|
F ---------------------------------------------------|
C -----------------------0~~---------0~----------0~--|
G -0-0-0-0-0-0-0-0-0-0-0-0~~-0-0-0-0-0~--0-0-0-0-0~--|
C -0-0-0-0-0-0-0-0-0-0-0-0~~-0-0-0-0-0~--0-0-0-0-0~--|

D ---------------------------------------------------|
A ---------------------------------------------------|
F ---------------------------------------------------|
C -----------------------0~~---------0~----------0~--|
G -0-0-0-0-0-0-0-0-0-0-0-0~~-0-0-0-0-0~--0-0-0-0-0~--|
C -0-0-0-0-0-0-0-0-0-0-0-0~~-0-0-0-0-0~--0-0-0-0-0~--|

D -------------------------------------------------------|
A -------------------------------------------------------|
F -------------------------------------------------------|
C ------------------------8~----------8~----------8~-----|
G --------8-8-8-8-8-8-8-8-8~--8-8-8-8-8~--8-8-8-8-8~-----|
C -12-10--8-8-8-8-8-8-8-8-8~--8-8-8-8-8~--8-8-8-8-8~-----|

D -------------------------------------------------------------------|
A -------------------------------------------------------------------|
F -------------------------------------------------------------------|
C -------------------------10~----------10~----------10~-------------|
G -10-10-10-10-10-10-10-10-10~-10-10-10-10~-10-10-10-10~--12-10-8-7--|
C -10-10-10-10-10-10-10-10-10~-10-10-10-10~-10-10-10-10~-------------|

This is all i have so far i dont know the part after he screams your betrayal. thanks 
veiwing and i hope it helped.
Tap to rate this tab
# A B C D E F G H I J K L M N O P Q R S T U V W X Y Z