Song name
# A B C D E F G H I J K L M N O P Q R S T U V W X Y Z

Bullet For My Valentine - Your Betrayal tab

Drop C Tuning
~: Hold out
^: Bend
I tabbed this by ear in about a day...so might be many mistakes
thanks!


Intro:  x4
|-------------------------------|
|-------------------------------|
|-------------------------------|
|000000000--00000---00000-------|
|000000000--00000---00000-------|
|000000000--00000---00000-------|
PM********  *****   *****

0:16 Part
x2
|-----------------------------------------------|
|----------------------333333333----------------|
|----------------------111111111----------------|
|////////////--77777777---------7777777710101010|
|PICKSCRAPE//--55555555---------5555555588888888|
|////////////-----------------------------------|

Repeat to 'Intro' becuase I don't have "Intro Solo" Tabs
Repeat 'Intro' Part x6 *Let Notes Ring*


0:53 Part
|----------------------------------------------------------------------
|----------------------------------------------------------------------
|----------------------------------------------------------------------
|000000000~~~00000~~00000~~~~~000000000~~~00000~~00000~10-8~88888~88888
|000000000~~~00000~~00000~~~~~000000000~~~00000~~00000~10-8~88888~88888
|000000000~~~00000~~00000~~~~~000000000~~~00000~~00000~10-8~88888~88888


|------------------------------------------------|
|------------------------------------------------|
|------------------------------------------------|
|88888~8-10~1010101010~~1010101010~~1010101010-10|
|88888~8-10~1010101010~~1010101010~~1010101010-10|
|88888~8-10~1010101010~~1010101010~~1010101010-10|

Repeat Section, Only instead of going to "10" go to "7" so its like this
|-------------------------------------------------|
|-------------------------------------------------|
|-------------------------------------------------|
|10-8~~88888~~88888~~88888~8-7~77777~77777~77777~7|
|10-8~~88888~~88888~~88888~8-7~77777~77777~77777~7|
|10-8~~88888~~88888~~88888~8-7~77777~77777~77777~7|

Listen for timings^^



Intro to Verse?   1:20
|-------------|
|-------------|
|-------------|
|--7--5--3--2-|
|-------------|
|-------------|


Verses  
|---------------------------|
|---------------------------|
|---------------------------|
|0000--0000--3------2-------|
|0000--0000----5------4-----|
|0000--0000------2------1^--|


Chours *Timing is probably wrong, but it goes somthing like this..*
1:58
|------------------------------------------------------------------------
|------------------------------------------------------------------------
|------------------------------------------------------------------------
|0~000000000~~~00000~~00000~~~~~000000000~~~00000~~00000~10-8~88888~88888
|0~000000000~~~00000~~00000~~~~~000000000~~~00000~~00000~10-8~88888~88888
|0~000000000~~~00000~~00000~~~~~000000000~~~00000~~00000~10-8~88888~88888


|------------------------------------------------|
|------------------------------------------------|
|------------------------------------------------|
|88888~8-10~1010101010~~1010101010~~1010101010-10|
|88888~8-10~1010101010~~1010101010~~1010101010-10|
|88888~8-10~1010101010~~1010101010~~1010101010-10|


Bridge *Listen to song for timings, I try to show them here..*
3:41
|-------------------------------------|
|-------------------------------------|
|-------------------------------------|
|-------------------------------------|
|000-000--00-000-000--000-0-0-000-----|
|000-000--00-000-000--000-0-0-000-----|
|000-000--00-000-000--000-0-0-000-----|

|--------------------------|
|--------------------------|
|--------------------------|
|0~~///////////////////////|
|0~~/PICKSLIDE INTO CHOURS/|
|0~~///////////////////////|


Repeat 'Chours'  4:20



Play 'Verse Intro'  4:47


Then Play 'Intro' for the Outro.   4:49



Enjoy!!  Tabbed by ear..
Any questions or comments, email me on my Youtube page
Account is Wiiguitar360.

Tap to rate this tab
 
# A B C D E F G H I J K L M N O P Q R S T U V W X Y Z