Song name
# A B C D E F G H I J K L M N O P Q R S T U V W X Y Z

Bullet For My Valentine - Your Betrayal tab

Note the numbers are not accurate, cba to do it :P just tabbing this for a friend
and he will understand, and hopefully you too.
Just listen to the song and time it.

Intro starts with Drums

Intro                                                                    x2
D|-------------------------------------------------|
A|-------------------------------------------------|
F|-----------77777~-77777~-7777-1010~--------------|  1010       1-1
C|////////---xxxxx~-xxxxx~-xxxx-x-x~---------------|  x-x  with  x-x
G|///////----55555~-55555~-5555-8-8~---------------|  8-8        3-3
C|//////-------------------------------------------|
 Pick Slide   (hit the strings alot more then tabbed)


Drums again, then some tapping which I have not figured out (starts with a pickslide)

D|-------------------------------------------------|
A|-------------------------------------------------|
F|-------------------------------------------------|
C|---------------------0~----------0~---------0-0~-|
G|-0-0-0-0-0-0-0-0-0-0-0~----0-0-0-0~---0-0-0-0-0~-|
C|-0-0-0-0-0-0-0-0-0-0-0~----0-0-0-0~---0-0-0-0-0~-|
   . . . . . . . . . .       . . .      . . .
D|---------------------------------------------------|
A|---------------------------------------------------|
F|---------------------------------------------------|
C|---------------------0~----------0~---------7-5----|
G|-0-0-0-0-0-0-0-0-0-0-0~----0-0-0-0~---0-0-0-5-3----|
C|-0-0-0-0-0-0-0-0-0-0-0~----0-0-0-0~---0-0-0--------|
   . . . . . . . . . .       . . .      . . .
D|-------------------------------------------------|
A|-------------------------------------------------|
F|-------------------------------------------------|
C|-3-3-3-3-3-3-3-3-3-3-3~----3-3-3-3~---3-3-3-3-3~-|
G|-1-1-1-1-1-1-1-1-1-1-1~----1-1-1-1~---1-1-1-1-1~-|
C|-------------------------------------------------|
   . . . . . . . . . .       . . .      . . .
D|-------------------------------------------------|
A|-------------------------------------------------|
F|-------------------------------------------------|
C|-5-5-5-5-5-5-5-5-5-5-5~----5-5-5-----7-5-3-2-----|
G|-3-3-3-3-3-3-3-3-3-3-3~----3-3-3-----------------|
C|-------------------------------------------------|
   . . . . . . . . . .       . . .

Verse: (Repeat whole verse)
D|-------------------------------------------------------|
A|-------------------------------------------------------| Ends with an open
F|-------------------------------------------------------|
C|-----------------------3-0---2-------------------| C|0-|
G|-0-0-0-0----0-0-0-0--------3---3-0----0-0-0-0----| G|0-|
C|-0-0-0-0----0-0-0-0-------------------0-0-0-0----| C|0-|
   . . . .    . . . .                   . . . .

Chorus: same as intro

thats about it. The rest is up to you.
Tap to rate this tab
# A B C D E F G H I J K L M N O P Q R S T U V W X Y Z