Song name
# A B C D E F G H I J K L M N O P Q R S T U V W X Y Z

Bullet For My Valentine - Your Betrayal tab

LEGENDS

Slide Down =  \
P.M. =  ^
Let Ring =  ~

 Both Guitars 4x (Guitar1- 8x)
|-----------------------------------|
|-----------------------------------|
|-----------------------------------|
|-----------------------------------|
|-000000000--00000-00000------------|
|-000000000--00000-00000------------|
  ^^^^^^^^   ^^^^  ^^^^
 After 4x 'Guitar 2' starts playing after a **Pick Scrap** While 'Guitar 1' Plays the 
Pattern.

 Guitar2
|-----------------------------------|
|-----------------------------------|
|-7-7-7-7-7-7-3-3-7-7-7-7-7-7-10-10-| 2x
|-7-7-7-7-7-7-3-3-7-7-7-7-7-7-10-10-|
|-5-5-5-5-5-5-1-1-5-5-5-5-5-5-8--8--|
|-----------------------------------|

 Then
 Both Guitars
|-----------------------------------|
|-----------------------------------|
|-----------------------------------|
|-----------------------------------| 2x
|-000000000--00000-00000------------|
|-000000000--00000-00000------------|
  ^^^^^^^^   ^^^^  ^^^^
 Then Guitar 2 Comes in with a 'Tapping' intro solo which i havnt figured out yet

 Guitar1 Backs up the Intro solo With
|-----------------------------------|
|-----------------------------------|
|-----------------------------------|
|-----------------------------------| 4x
|-000000000--00000-00000------------|
|-000000000--00000-00000------------|
  ^^^^^^^^   ^^^^  ^^^^
 After above 4x Guitar 1 Starts playing
|------------------------------------------------------------|
|------------------------------------------------------------|
|-77777777-7--7777-7--7777-7-7--77777777-7--7777-7--7777-7-5-|
|-77777777-7--7777-7--7777-7-7--77777777-7--7777-7--7777-7-5-|
|-55555555-5--5555-5--5555-5-5--55555555-5--5555-5--5555-5-3-|
|------------------------------------------------------------|

-------------------------------------------------|
-------------------------------------------------|
-33333333-3--3333-3-3333-3-3--55555555-5--5555---|
-33333333-3--3333-3-3333-3-3--55555555-5--5555---| 2x
-11111111-1--1111-1-1111-1-1--33333333-3--3333---|
-------------------------------------------------|

 Finish Chorus and into verse with
 Guitar1                        Guitar2
|--------------------|          |------------------|
|-8\10--8--6---------|          |------------------|
|-------------5------|          |------------------|
|--------------------|          |-3\5--3--2--------|
|--------------------|          |------------3-----|
|--------------------|          |------------------|


 VERSE

 Guitar 1
|-----------------------------------|
|----------------------6-5-3-5------|
|------------------------------5-2--|
|-----------------------------------|
|-0-0-00------0-0-00----------------|
|-0-0-00------0-0-00----------------|
  ^ ^ ^^      ^ ^ ^^
 Guitar2                                    )4x
|-----------------------------------|
|-----------------------------------|
|-----------------------------------|
|----------------------3-2---2------|
|-0-0-00------0-0-00-------5---3-0--|
|-0-0-00------0-0-00----------------|
  ^ ^ ^^      ^ ^ ^^   |          |
                  or  ( Pick scrap )in evry same repeated part nt sure though
 Into Chorus With
 Both Guitars
|-----------------------------------|
|-----------------------------------|
|-----------------------------------|
|-0~~~~~~~~~~~~---------------------|
|-0~~~~~~~~~~~~---------------------|
|-0~~~~~~~~~~~~---(**Pick Scrap**)--|


 CHORUS

 Both Guitar
|------------------------------------------------------------|
|------------------------------------------------------------|
|-77777777-7--7777-7--7777-7-7--77777777-7--7777-7--7777-7-5-|
|-77777777-7--7777-7--7777-7-7--77777777-7--7777-7--7777-7-5-|
|-55555555-5--5555-5--5555-5-5--55555555-5--5555-5--5555-5-3-|
|------------------------------------------------------------|

-------------------------------------------------|
-------------------------------------------------|
-33333333-3--3333-3-3333-3-3--55555555-5--5555---|
-33333333-3--3333-3-3333-3-3--55555555-5--5555---| 2x
-11111111-1--1111-1-1111-1-1--33333333-3--3333---|
-------------------------------------------------|

 Then Finish Chorus and into verse with
 Guitar1                        Guitar2
|--------------------|          |------------------|
|-8\10--8--6---------|          |------------------|
|-------------5------|          |------------------|
|--------------------|          |-3\5--3--2--------|
|--------------------|          |------------3-----|
|--------------------|          |------------------|


 VERSE 2

 Guitar 1
|-----------------------------------|
|----------------------6-5-3-5------|
|------------------------------5-2--|
|-----------------------------------|
|-0-0-00------0-0-00----------------|
|-0-0-00------0-0-00----------------|
  ^ ^ ^^      ^ ^ ^^
 Guitar2                                    )4x
|-----------------------------------|
|-----------------------------------|
|-----------------------------------|
|----------------------3-2---2------|
|-0-0-00------0-0-00-------5---3-0--|
|-0-0-00------0-0-00----------------|
  ^ ^ ^^      ^ ^ ^^

Into Chorus With
 Both Guitars
|-----------------------------------|
|-----------------------------------|
|-----------------------------------|
|-0~~~~~~~~~~~~---------------------|
|-0~~~~~~~~~~~~---------------------|
|-0~~~~~~~~~~~~---(**Pick Scrap**)--|


 CHORUS 2

 Both Guitar
|------------------------------------------------------------|
|------------------------------------------------------------|
|-77777777-7--7777-7--7777-7-7--77777777-7--7777-7--7777-7-5-|
|-77777777-7--7777-7--7777-7-7--77777777-7--7777-7--7777-7-5-|
|-55555555-5--5555-5--5555-5-5--55555555-5--5555-5--5555-5-3-|
|------------------------------------------------------------|

-------------------------------------------------|
-------------------------------------------------|
-33333333-3--3333-3-3333-3-3--55555555-5--5555---|
-33333333-3--3333-3-3333-3-3--55555555-5--5555---| 2x
-11111111-1--1111-1-1111-1-1--33333333-3--3333---|
-------------------------------------------------|

 Finish Chorus and Into Bridge\Breakdown

 Guitar1                        Guitar2
|--------------------|          |------------------|
|-8\10--8--6---------|          |------------------|
|-------------5------|          |------------------|
|--------------------|          |-3\5--3--2--------|
|--------------------|          |------------3-----|
|--------------------|          |------------------|

 Breakdown\Bridge
 Guitar1
|----------------------------------------------------------------|
|----------------------------------------------------------------|
|----------------------------------------------------------------|
|-0~~~~~~~~~--------0~~~~~~--------------------------------------|
|-0~~~~~~~~~--0000--0~~~~~~--(*Softly Pick Scrap)-000000000000---|
|-0~~~~~~~~~--0000--0~~~~~~-----------------------000000000000---|
              ^^^^                                ^^^^^^^^^^^^
 Guitar2                                            in 1x only
|--------------------------------------------------------------|
|-10--10--10--10--11--11--11--11--8-8-8-8-10--10---{11-10-8---}|
|---10--10--10--10--10--10--10--10-9-9-9-9--10--10-{-------10-}|
|--------------------------------------------------------------| 2x
|--------------------------------------------------------------|
|--------------------------------------------------------------|
 im not sure bout the above part

 Guitar1
|-----------------------------------|
|-----------------------------------|
|-----------------------------------|
|-----------------------------------| 4x strum pattern might be different
|-000-000--0--0000--000-000-00-0-00-|    in 2nd and 4th time
|-000-000--0--0000--000-000-00-0-00-|

 Guitar2
|--------------------------------------------------------------|
|-10--10--10--10--11--11--11--11--8-8-8-8-10--10---{11-10-8---}|
|---10--10--10--10--10--10--10--10-9-9-9-9--10--10-{-------10-}|
|--------------------------------------------------------------| 4x
|--------------------------------------------------------------|
|--------------------------------------------------------------|


Into Chorus With
 Both Guitars
|-----------------------------------|
|-----------------------------------|
|-----------------------------------|
|-0~~~~~~~~~~~~---------------------|
|-0~~~~~~~~~~~~---------------------|
|-0~~~~~~~~~~~~---(**Pick Scrap**)--|


 CHORUS 3

 Both Guitar
|------------------------------------------------------------|
|------------------------------------------------------------|
|-77777777-7--7777-7--7777-7-7--77777777-7--7777-7--7777-7-5-|
|-77777777-7--7777-7--7777-7-7--77777777-7--7777-7--7777-7-5-|
|-55555555-5--5555-5--5555-5-5--55555555-5--5555-5--5555-5-3-|
|------------------------------------------------------------|

-------------------------------------------------|
-------------------------------------------------|
-33333333-3--3333-3-3333-3-3--55555555-5--5555---|
-33333333-3--3333-3-3333-3-3--55555555-5--5555---| 2x
-11111111-1--1111-1-1111-1-1--33333333-3--3333---|
-------------------------------------------------|

 Finish Chorus with
 Guitar1                        Guitar2
|--------------------|          |------------------|
|-8\10--8--6---------|          |------------------|
|-------------5------|          |------------------|
|--------------------|          |-3\5--3--2--------|
|--------------------|          |------------3-----|
|--------------------|          |------------------|

 END WITH
 Both Guitars
|-----------------------------------|
|-----------------------------------|
|-----------------------------------|
|-----------------------------------|
|-000000000--00000-00000------------|
|-000000000--00000-00000------------|
  ^^^^^^^^   ^^^^  ^^^^


So Guys its the first time i ever wrote a tab, please point out my mistakes
and i will be really happy if you guys wud rate my first work :)
Thanx
For Beginners:
Ending 0's without Palm Mute in intro like sections are Palm Muted But Less or we can 
that they just Ring a little bit

________________________________________________________________________
Damn I Specially Love The Verses of this song Both Guitar and Vocals(Whispering)
Tap to rate this tab
 
# A B C D E F G H I J K L M N O P Q R S T U V W X Y Z