Song name
# A B C D E F G H I J K L M N O P Q R S T U V W X Y Z

Bullet For My Valentine - Hit The Floor tab

Hit The Floor
Bullet For My Valentine
The Poison Album
Drop C- CGCFAD


-Intro-
Matt
D|---------------------------------------------------------------|
A|---------------------------------------------------------------|
F|---------------------------------------------------------------|
C|-----4-----4-----4-----4-----4-----5-----5-----5-----5-----5/7-|
G|---------------------------------------------------------------|
C|-2-2---2-2---2-2---2-2---2-2---2-2---2-2---2-2---2-2---2-2-----|
   - -   - -   - -   - -   - -   - -   - -   - -   - -   - -
Padge
D|---------------------------------------------------------------|
A|---------------------------------------------------------------|
F|---------------------------------------------------------------|
C|---------------------------------------------------------------|
G|-2-2~~-2-2~~-2-2~~-------------2-2~~-2-2~~-2-2~~---------------|
C|-2-2~~-2-2~~-2-2~~-------------2-2~~-2-2~~-2-2~~---------------|
   - -   - -   - -               - -   - -   - -

Matt
D|------------------------------------------------------------|
A|------------------------------------------------------------|
F|------------------------------------------------------------|
C|-----4-----4-----4-----4-----4-----5-----5-----5--2-5-2-5-2-|
G|--------------------------------------------------2-5-2-5-2-|
C|-2-2---2-2---2-2---2-2---2-2---2-2---2-2---2-2----2-5-2-5-2-|
   - -   - -   - -   - -   - -   - -   - -   - -
Padge
D|------------------------------------------------------------|
A|------------------------------------------------------------|
F|------------------------------------------------------------|
C|--------------------------------------------------2-5-2-5-2-|
G|-2-2~~-2-2~~-2-2~~-------------2-2~~-2-2~~-2-2~~~-2-5-2-5-2-|
C|-2-2~~-2-2~~-2-2~~-------------2-2~~-2-2~~-2-2~~~-2-5-2-5-2-|
   - -   - -   - -               - -   - -   - -

Matt & Padge
D|--------------------------------------------------------------------|
A|--------------------------------------------------------------------|
F|--------------------------------------------------------------------|
C|-2-2~-2-2~-2-2~--------------------2-2~-2-2~-2-2~-------------------|
G|-2-2~-2-2~-2-2~--------------------2-2~-2-2~-2-2~-------------------|
C|-2-2~-2-2~-2-2~-<3><3><3><3><3><3>-2-2~-2-2~-2-2~-<3><3><3><3><3><3>|

D|------------------------------------------------------------|
A|------------------------------------------------------------|
F|------------------------------------------------------------|
C|-2-2~-2-2~-2-2~--------------------2-2~-2-2~-2-2~-2-5-2-5-2-|
G|-2-2~-2-2~-2-2~--------------------2-2~-2-2~-2-2~-2-5-2-5-2-|
C|-2-2~-2-2~-2-2~-<3><3><3><3><3><3>-2-2~-2-2~-2-2~-2-5-2-5-2-|

Matt
D|-----------------------------------------------|
A|-----------------------------------------------|
F|------------5-----7----------------5-----7-----|
C|-2-2~-2-2~--5-5~--7-7~--2-2~-2-2~--5-5~--7-7~--|
G|-2-2~-2-2~--3-5~--5-7~--2-2~-2-2~--3-5~--5-7~--|
C|-2-2~-2-2~----5~----7~--2-2~-2-2~----5~----7~--|
Padge
D|--------------------------------------------------------|
A|-8--12-10--7~~-13-12--10p8h10--8--7--8--7--5--7--8--7~~-|
F|--------------------------------------------------------|
C|--------------------------------------------------------|
G|--------------------------------------------------------|
C|--------------------------------------------------------|
Gtr 3
D|-15-19-17-14~~-20-19-17p15h17-15-14-15-14-12-14-15-14~~-|
A|--------------------------------------------------------|
F|--------------------------------------------------------|
C|--------------------------------------------------------|
G|--------------------------------------------------------|
C|--------------------------------------------------------|

Matt
D|------------------------------------------|
A|------------------------------------------|
F|------------5-----7-----------------------|
C|-2-2~-2-2~--5-5~--7-7~--2-2~-2-2~--0/12\\-|
G|-2-2~-2-2~--3-5~--5-7~--2-2~-2-2~--0/12\\-|
C|-2-2~-2-2~----5~----7~--2-2~-2-2~--0/12\\-|
Padge
D|--------------------------------------------------------------------|
A|-8--12-10-13~~~-13-12--10p8h10--8--7--8--7--5--7--8--7--8~~~~~~~~~~-|
F|--------------------------------------------------------------------|
C|--------------------------------------------------------------------|
G|--------------------------------------------------------------------|
C|--------------------------------------------------------------------|
Gtr 3
D|-15-19-17-20~~~-20-19-17p15h17-15-14-15-14-12-14-15-14-15~~~~~~~~~~-|
A|--------------------------------------------------------------------|
F|--------------------------------------------------------------------|
C|--------------------------------------------------------------------|
G|--------------------------------------------------------------------|
C|--------------------------------------------------------------------|


-Verse-
Padge
D|-------------------------------------------------------------------------------|
A|-------------------------------------------------------------------------------|
F|-12----------------12----------------12----12---11-----------11-----------11---|
C|-------------------------------------------------------------------------------|
G|----10-10-10-10-10----10-10-10-10-10----10----9----9-9-9-9-9----9-9-9-9-9----9-|
C|-------------------------------------------------------------------------------|
      -  -  -  -  -     -  -  -  -  -     -     -    - - - - -    - - - - -    -
"I see you walking home alone, your face is alive and bright...

D|-----------------------------------------------------------------------------------|
A|-----------------------------------------------------------------------------------|
F|-12----------------12----------------12----12---11-----------11-----------11h12p11-|
C|-----------------------------------------------------------------------------------|
G|----10-10-10-10-10----10-10-10-10-10----10----9----9-9-9-9-9----9-9-9-9-9----------|
C|-----------------------------------------------------------------------------------|
      -  -  -  -  -     -  -  -  -  -     -     -    - - - - -    - - - - -
...But you can't see how weak you really are, 'cause I can end it tonight...

Matt
D|-----------------------------------------------------------------------------|
A|-----------------------------------------------------------------------------|
F|-----------------------------------------------------------------------------|
C|-----------------------------------------------------------------------------|
G|--5--5--5--5--5--5--5--5--5--5--5--5--5--5--5--5--5--5--5--5--5--5--5--5--5--|
C|--5--5--5--5--5--5--5--5--5--5--5--5--5--5--5--5--5--5--5--5--5--5--5--5--5--|
    -  -  -  -  -  -  -  -  -  -  -  -  -  -  -  -  -  -  -  -  -  -  -  -  -
Padge
D|-------------------------------------------------------------------------------|
A|-------------------------------------------------------------------------------|
F|-12----------------12----------------12----12---11-----------11-----------11---|
C|-------------------------------------------------------------------------------|
G|----10-10-10-10-10----10-10-10-10-10----10----9----9-9-9-9-9----9-9-9-9-9----9-|
C|-------------------------------------------------------------------------------|
      -  -  -  -  -     -  -  -  -  -     -     -    - - - - -    - - - - -    -
...It's the feeling you get when you think, that someone behind is watching you...

Matt
D|---------------------------------------------------------------------------------------|
A|---------------------------------------------------------------------------------------|
F|---------------------------------------------------------------------------------------|
C|----------------------------------5--5--5--5--5--5--5--5--5--5--5--5--5--5--5--5--5--5-|
G|-5--5--5--5--5--5--5--5--5--5--5--5--5--5--5--5--5--5--5--5--5--5--5--5--5--5--5--5--5-|
C|-5--5--5--5--5--5--5--5--5--5--5--5--5--5--5--5--5--5--5--5--5--5--5--5--5--5--5--5--5-|
   -  -  -  -  -  -  -  -  -  -  -  -  -  -  -  -  -  -  -  -  -
Padge
D|---------------------------------------------------------------------------------------|
A|---------------------------------------------------------------------------------------|
F|-12----------------12----------------12----12----12----------------12---------------12-|
C|---------------------------------------------------------------------------------------|
G|----10-10-10-10-10----10-10-10-10-10----10----10----10-10-10-10-10----10-10-10-10-10---|
C|---------------------------------------------------------------------------------------|
      -  -  -  -  -     -  -  -  -  -     -     -     -  -  -  -  -     -  -  -  -  -
...Well I can tell you now that someone is me, and I'm about to make it riiight"


-Chorus-
Matt
D|--------------------------------------------|
A|--------------------------------------------|
F|----------------------------4-4-4-4--5-2~~~-|
C|-2-2-------------------2-2------------------|
G|-2-2-------------------2-2------------------|
C|-2-2-------------------2-2------------------|
Padge
D|--------------------------------------------|
A|--------------------------------------------|
F|--------------------------------------------|
C|-2-2--5-5-5-5--4-4~~~--2-2--5-5-5-5--7-4~~~-|
G|-2-2-------------------2-2------------------|
C|-2-2-------------------2-2------------------|
"Why do you take it all? Why do I beg for more?...

Matt
D|-------------------------------------------------------------|
A|-------------------------------------------------------------|
F|-5-5-5-5-5-5-5-5-5-5-5-5-5-5-5-5-4-4-4-4-4-4-4-4-4-4-4-4-4-4-|
C|-5-5-5-5-5-5-5-5-5-5-5-5-5-5-5-5-4-4-4-4-4-4-4-4-4-4-4-4-4-4-|
G|-3-3-3-3-3-3-3-3-3-3-3-3-3-3-3-3-2-2-2-2-2-2-2-2-2-2-2-2-2-2-|
C|-------------------------------------------------------------|
Padge
D|-----------------------------------------7-5-----5-----------|
A|---------------------------------------------8-5---8-7-3-5~~-|
F|-------------------------------------------------------------|
C|-----5-----5---5---5---7---5-----4-----4---------------------|
G|-------------------------------------------------------------|
C|-2-2---2-2---2---2---2---2---2-2---2-2-----------------------|
   - -   - -   -   -   -   -   - -   - -
...I never thought that this is how I'd Hit The Floor...

Matt
D|--------------------------------------------|
A|--------------------------------------------|
F|----------------------------4-4-4-4--5-2~~~-|
C|-2-2-------------------2-2------------------|
G|-2-2-------------------2-2------------------|
C|-2-2-------------------2-2------------------|
Padge
D|--------------------------------------------|
A|--------------------------------------------|
F|--------------------------------------------|
C|-2-2--5-5-5-5--4-4~~~--2-2--5-5-5-5--7-4~~~-|
G|-2-2-------------------2-2------------------|
C|-2-2-------------------2-2------------------|
...Why do you take it all? Why do I beg for more?...

Matt
D|-------------------------------------------------------------|
A|-------------------------------------------------------------|
F|-5-5-5-5-5-5-5-5-5-5-5-5-5-5-5-5-4-4-4-4-4-4-4-4-4-4-4-4-4-4-|
C|-5-5-5-5-5-5-5-5-5-5-5-5-5-5-5-5-4-4-4-4-4-4-4-4-4-4-4-4-4-4-|
G|-3-3-3-3-3-3-3-3-3-3-3-3-3-3-3-3-2-2-2-2-2-2-2-2-2-2-2-2-2-2-|
C|-------------------------------------------------------------|
Padge
D|-----------------------------------------7-5-----5-----------|
A|---------------------------------------------8-5---8-7-3-5~~-|
F|-------------------------------------------------------------|
C|-----5-----5---5---5---7---5-----4-----4---------------------|
G|-------------------------------------------------------------|
C|-2-2---2-2---2---2---2---2---2-2---2-2-----------------------|
   - -   - -   -   -   -   -   - -   - -
...I never thought that this is how I'd HIT THE FLOOOOORR!!!"


Matt & Padge
D|--------------------------------------------------------------------|
A|--------------------------------------------------------------------|
F|--------------------------------------------------------------------|
C|-2-2~-2-2~-2-2~--------------------2-2~-2-2~-2-2~-------------------|
G|-2-2~-2-2~-2-2~--------------------2-2~-2-2~-2-2~-------------------|
C|-2-2~-2-2~-2-2~-<3><3><3><3><3><3>-2-2~-2-2~-2-2~-<3><3><3><3><3><3>|

D|------------------------------------------------------------|
A|------------------------------------------------------------|
F|------------------------------------------------------------|
C|-2-2~-2-2~-2-2~--------------------2-2~-2-2~-2-2~-2-5-2-5-2-|
G|-2-2~-2-2~-2-2~--------------------2-2~-2-2~-2-2~-2-5-2-5-2-|
C|-2-2~-2-2~-2-2~-<3><3><3><3><3><3>-2-2~-2-2~-2-2~-2-5-2-5-2-|


-Verse-
Padge
D|-------------------------------------------------------------------------------|
A|-------------------------------------------------------------------------------|
F|-12----------------12----------------12----12---11-----------11-----------11---|
C|-------------------------------------------------------------------------------|
G|----10-10-10-10-10----10-10-10-10-10----10----9----9-9-9-9-9----9-9-9-9-9----9-|
C|-------------------------------------------------------------------------------|
      -  -  -  -  -     -  -  -  -  -     -     -    - - - - -    - - - - -    -
"I creep up from behind touch your neck, move down to your spine...

Padge
D|-----------------------------------------------------------------------------------|
A|-----------------------------------------------------------------------------------|
F|-12----------------12----------------12----12---11-----------11-----------11h12p11-|
C|-----------------------------------------------------------------------------------|
G|----10-10-10-10-10----10-10-10-10-10----10----9----9-9-9-9-9----9-9-9-9-9----------|
C|-----------------------------------------------------------------------------------|
      -  -  -  -  -     -  -  -  -  -     -     -    - - - - -    - - - - -
Gtr 3
D|-----------------------------------------------------------------------------------|
A|-----------------------------------------------------------------------------------|
F|--------------------------------------------------------------------------7h9p7----|
C|-----------------------------------------------------------------------------------|
G|-----------------------------------------------------------------------------------|
C|-----------------------------------------------------------------------------------|
...You take a look and breathe so sharp, it's just a matter of tiiime...

Matt
D|-----------------------------------------------------------------------------|
A|-----------------------------------------------------------------------------|
F|-----------------------------------------------------------------------------|
C|-----------------------------------------------------------------------------|
G|--5--5--5--5--5--5--5--5--5--5--5--5--5--5--5--5--5--5--5--5--5--5--5--5--5--|
C|--5--5--5--5--5--5--5--5--5--5--5--5--5--5--5--5--5--5--5--5--5--5--5--5--5--|
    -  -  -  -  -  -  -  -  -  -  -  -  -  -  -  -  -  -  -  -  -  -  -  -  -
Padge
D|-------------------------------------------------------------------------------|
A|-------------------------------------------------------------------------------|
F|-12----------------12----------------12----12---11-----------11-----------11---|
C|-------------------------------------------------------------------------------|
G|----10-10-10-10-10----10-10-10-10-10----10----9----9-9-9-9-9----9-9-9-9-9----9-|
C|-------------------------------------------------------------------------------|
      -  -  -  -  -     -  -  -  -  -     -     -    - - - - -    - - - - -    -
Gtr 3
D|-------------------------------------------------------------------------------|
A|-------------------------------------------------------------------------------|
F|-9-----------------9-----------------9-----9----7------------7------------7----|
C|-------------------------------------------------------------------------------|
G|----7--7--7--7--7-----7--7--7--7--7-----7-----5----5-5-5-5-5----5-5-5-5-5----5-|
C|-------------------------------------------------------------------------------|
      -  -  -  -  -     -  -  -  -  -     -     -    - - - - -    - - - - -    -
...Don't scream I ask of you but then you let one out, so now its time to go...

Matt
D|---------------------------------------------------------------------------------------|
A|---------------------------------------------------------------------------------------|
F|---------------------------------------------------------------------------------------|
C|----------------------------------5--5--5--5--5--5--5--5--5--5--5--5--5--5--5--5--5--5-|
G|-5--5--5--5--5--5--5--5--5--5--5--5--5--5--5--5--5--5--5--5--5--5--5--5--5--5--5--5--5-|
C|-5--5--5--5--5--5--5--5--5--5--5--5--5--5--5--5--5--5--5--5--5--5--5--5--5--5--5--5--5-|
   -  -  -  -  -  -  -  -  -  -  -  -  -  -  -  -  -  -  -  -  -
Padge
D|---------------------------------------------------------------------------------------|
A|---------------------------------------------------------------------------------------|
F|-12----------------12----------------12----12----12----------------12---------------12-|
C|---------------------------------------------------------------------------------------|
G|----10-10-10-10-10----10-10-10-10-10----10----10----10-10-10-10-10----10-10-10-10-10---|
C|---------------------------------------------------------------------------------------|
      -  -  -  -  -     -  -  -  -  -     -     -     -  -  -  -  -     -  -  -  -  -
Gtr 3
D|---------------------------------------------------------------------------------------|
A|---------------------------------------------------------------------------------------|
F|-9-----------------9-----------------9-----9-----9-----------------9----------------9--|
C|---------------------------------------------------------------------------------------|
G|----7--7--7--7--7-----7--7--7--7--7-----7-----7-----7--7--7--7--7-----7--7--7--7--7----|
C|---------------------------------------------------------------------------------------|
      -  -  -  -  -     -  -  -  -  -     -     -     -  -  -  -  -     -  -  -  -  -
...I come down on you like a ton of bricks, all over so it's time to gooo"


-Chorus-
Matt
D|--------------------------------------------|
A|--------------------------------------------|
F|----------------------------4-4-4-4--5-2~~~-|
C|-2-2-------------------2-2------------------|
G|-2-2-------------------2-2------------------|
C|-2-2-------------------2-2------------------|
Padge
D|--------------------------------------------|
A|--------------------------------------------|
F|--------------------------------------------|
C|-2-2--5-5-5-5--4-4~~~--2-2--5-5-5-5--7-4~~~-|
G|-2-2-------------------2-2------------------|
C|-2-2-------------------2-2------------------|
"Why do you take it all? Why do I beg for more?...

Matt
D|-------------------------------------------------------------|
A|-------------------------------------------------------------|
F|-5-5-5-5-5-5-5-5-5-5-5-5-5-5-5-5-4-4-4-4-4-4-4-4-4-4-4-4-4-4-|
C|-5-5-5-5-5-5-5-5-5-5-5-5-5-5-5-5-4-4-4-4-4-4-4-4-4-4-4-4-4-4-|
G|-3-3-3-3-3-3-3-3-3-3-3-3-3-3-3-3-2-2-2-2-2-2-2-2-2-2-2-2-2-2-|
C|-------------------------------------------------------------|
Padge
D|-----------------------------------------7-5-----5-----------|
A|---------------------------------------------8-5---8-7-3-5~~-|
F|-------------------------------------------------------------|
C|-----5-----5---5---5---7---5-----4-----4---------------------|
G|-------------------------------------------------------------|
C|-2-2---2-2---2---2---2---2---2-2---2-2-----------------------|
   - -   - -   -   -   -   -   - -   - -
...I never thought that this is how I'd Hit The Floor...

Matt
D|--------------------------------------------|
A|--------------------------------------------|
F|----------------------------4-4-4-4--5-2~~~-|
C|-2-2-------------------2-2------------------|
G|-2-2-------------------2-2------------------|
C|-2-2-------------------2-2------------------|
Padge
D|--------------------------------------------|
A|--------------------------------------------|
F|--------------------------------------------|
C|-2-2--5-5-5-5--4-4~~~--2-2--5-5-5-5--7-4~~~-|
G|-2-2-------------------2-2------------------|
C|-2-2-------------------2-2------------------|
...Why do you take it all? Why do I beg for more?...

Matt
D|-------------------------------------------------------------|
A|-------------------------------------------------------------|
F|-5-5-5-5-5-5-5-5-5-5-5-5-5-5-5-5-4-4-4-4-4-4-4-4-4-4-4-4-4-4-|
C|-5-5-5-5-5-5-5-5-5-5-5-5-5-5-5-5-4-4-4-4-4-4-4-4-4-4-4-4-4-4-|
G|-3-3-3-3-3-3-3-3-3-3-3-3-3-3-3-3-2-2-2-2-2-2-2-2-2-2-2-2-2-2-|
C|-------------------------------------------------------------|
Padge
D|-----------------------------------------7-5-----5-----------|
A|---------------------------------------------8-5---8-7-3-5~~-|
F|-------------------------------------------------------------|
C|-----5-----5---5---5---7---5-----4-----4---------------------|
G|-------------------------------------------------------------|
C|-2-2---2-2---2---2---2---2---2-2---2-2-----------------------|
   - -   - -   -   -   -   -   - -   - -
...I never thought that this is how I'd Hit The Floor...

HIT THE FLOOOOORRR!!!"


-Breakdown-
Matt
D||--------------------------------------------------------|
A||o-------------------------------------------------------|
F||--5-5-5-5-5-5-5-5-5-5-5-5-5-5-5-5-5-5-5-5-5-5-5-5-5-5-5-|
C||--5-5-5-5-5-5-5-5-5-5-5-5-5-5-5-5-5-5-5-5-5-5-5-5-5-5-5-|
G||o-3-3-3-3-3-3-3-3-3-3-3-3-3-3-3-3-3-3-3-3-3-3-3-3-3-3-3-|
C||--------------------------------------------------------|
Padge
D||--------------------------------------------------------|
A||o-88888888-77777777-12-12-12-12-12-12-10-10-10-10-10-10-|
F||--------------------------------------------------------|
C||--------------------------------------------------------|
G||o-------------------------------------------------------|
C||--------------------------------------------------------|
"Whoooaaaa ooooohhhh ahhhhhhhhhh oooohhhhhhhhhh...

Matt
D|-------------------------------------------------||
A|------------------------------------------------o||
F|-4--4\2-------4--4\2-------4--4\2-------4--4\2~--||
C|--------4/5~---------4/5~---------4/5~-----------||
G|------------------------------------------------o||
C|-------------------------------------------------||
Padge                                               x3
D|-------------------------------------------------||
A|------------------------------------------------o||
F|-------------------------------------------------||
C|-5--5\4-------5--5\4-------5--5\4-------5--5\4~--||
G|--------5/7~---------5\7~---------5/7~----------o||
C|-------------------------------------------------||

Matt
D|-------------------------------------------------------|
A|-------------------------------------------------------|
F|-5-5-5-5-5-5-5-5-5-5-5-5-5-5-5-5-5-5-5-5-5-5-5-5-5-5-5-|
C|-5-5-5-5-5-5-5-5-5-5-5-5-5-5-5-5-5-5-5-5-5-5-5-5-5-5-5-|
G|-3-3-3-3-3-3-3-3-3-3-3-3-3-3-3-3-3-3-3-3-3-3-3-3-3-3-3-|
C|-------------------------------------------------------|
Padge
D|-------------------------------------------------------|
A|-88888888-77777777-12-12-12-12-12-12-10-10-10-10-10-10-|
F|-------------------------------------------------------|
C|-------------------------------------------------------|
G|-------------------------------------------------------|
C|-------------------------------------------------------|
...Whoooaaaa ooooohhhh ahhhhhhhhhh oooohhhhhhhhhh"


Matt
D|---------------------------------------------------------------|
A|---------------------------------------------------------------|
F|---------------------------------------------------------------|
C|-----4-----4-----4-----4-----4-----5-----5-----5-----5-----5/7-|
G|---------------------------------------------------------------|
C|-2-2---2-2---2-2---2-2---2-2---2-2---2-2---2-2---2-2---2-2-----|
   - -   - -   - -   - -   - -   - -   - -   - -   - -   - -
Padge
D|---------------------------------------------------------------|
A|---------------------------------------------------------------|
F|---------------------------------------------------------------|
C|---------------------------------------------------------------|
G|-2-2~~-2-2~~-2-2~~-------------2-2~~-2-2~~-2-2~~---------------|
C|-2-2~~-2-2~~-2-2~~-------------2-2~~-2-2~~-2-2~~---------------|
   - -   - -   - -               - -   - -   - -

Matt
D|------------------------------------------------------------|
A|------------------------------------------------------------|
F|------------------------------------------------------------|
C|-----4-----4-----4-----4-----4-----5-----5-----5--2-5-2-5-2-|
G|--------------------------------------------------2-5-2-5-2-|
C|-2-2---2-2---2-2---2-2---2-2---2-2---2-2---2-2----2-5-2-5-2-|
   - -   - -   - -   - -   - -   - -   - -   - -
Padge
D|------------------------------------------------------------|
A|------------------------------------------------------------|
F|------------------------------------------------------------|
C|--------------------------------------------------2-5-2-5-2-|
G|-2-2~~-2-2~~-2-2~~-------------2-2~~-2-2~~-2-2~~~-2-5-2-5-2-|
C|-2-2~~-2-2~~-2-2~~-------------2-2~~-2-2~~-2-2~~~-2-5-2-5-2-|
   - -   - -   - -               - -   - -   - -


-Chorus-
Matt
D|--------------------------------------------|
A|--------------------------------------------|
F|----------------------------6-6-6-6--7-4~~~-|
C|-4-4-------------------4-4------------------|
G|-4-4-------------------4-4------------------|
C|-4-4-------------------4-4------------------|
Padge
D|--------------------------------------------|
A|--------------------------------------------|
F|--------------------------------------------|
C|-4-4--7-7-7-7--6-6~~~--4-4--7-7-7-7--9-6~~~-|
G|-4-4-------------------4-4------------------|
C|-4-4-------------------4-4------------------|
"Why do you take it all? Why do I beg for more?...

Matt
D|-------------------------------------------------------------|
A|-------------------------------------------------------------|
F|-7-7-7-7-7-7-7-7-7-7-7-7-7-7-7-7-6-6-6-6-6-6-6-6-6-6-6-6-6-6-|
C|-7-7-7-7-7-7-7-7-7-7-7-7-7-7-7-7-6-6-6-6-6-6-6-6-6-6-6-6-6-6-|
G|-5-5-5-5-5-5-5-5-5-5-5-5-5-5-5-5-4-4-4-4-4-4-4-4-4-4-4-4-4-4-|
C|-------------------------------------------------------------|
Padge
D|-----------------------------------------9-7-----7-----------|
A|--------------------------------------------10-7--10-9-5-7~~-|
F|-------------------------------------------------------------|
C|-----7-----7---7---7---9---7-----6-----6---------------------|
G|-------------------------------------------------------------|
C|-4-4---4-4---4---4---4---4---4-4---4-4-----------------------|
   - -   - -   -   -   -   -   - -   - -
...I never thought that this is how I'd Hit The Floor...

Matt
D|--------------------------------------------|
A|--------------------------------------------|
F|----------------------------6-6-6-6--7-4~~~-|
C|-4-4-------------------4-4------------------|
G|-4-4-------------------4-4------------------|
C|-4-4-------------------4-4------------------|
Padge
D|--------------------------------------------|
A|--------------------------------------------|
F|--------------------------------------------|
C|-4-4--7-7-7-7--6-6~~~--4-4--7-7-7-7--9-6~~~-|
G|-4-4-------------------4-4------------------|
C|-4-4-------------------4-4------------------|
...Why do you take it all? Why do I beg for more?...

Matt
D|-------------------------------------------------------------|
A|-------------------------------------------------------------|
F|-7-7-7-7-7-7-7-7-7-7-7-7-7-7-7-7-6-6-6-6-6-6-6-6-6-6-6-6-6-6-|
C|-7-7-7-7-7-7-7-7-7-7-7-7-7-7-7-7-6-6-6-6-6-6-6-6-6-6-6-6-6-6-|
G|-5-5-5-5-5-5-5-5-5-5-5-5-5-5-5-5-4-4-4-4-4-4-4-4-4-4-4-4-4-4-|
C|-------------------------------------------------------------|
Padge
D|-----------------------------------------9-7-----7-----------|
A|--------------------------------------------10-7--10-9-5-7~~-|
F|-------------------------------------------------------------|
C|-----7-----7---7---7---9---7-----6-----6---------------------|
G|-------------------------------------------------------------|
C|-4-4---4-4---4---4---4---4---4-4---4-4-----------------------|
   - -   - -   -   -   -   -   - -   - -
...I never thought that this is how I'd HIT THE FLOOOORRR!!!

Matt & Padge
D|---------------------------------------------------------------------------|
A|---------------------------------------------------------------------------|
F|---------------------------------------------------------------------------|
C|---------------------5~---------4~------------------5~---------4~----------|
G|-4-2-0-5-4-2-4-2-4-2-5~-4-2-4-2-4~-0~-0~-0~-4-2-4-2-5~-4-2-4-2-4~-0~-0~-0~-|
C|-4-2-0-5-4-2-4-2-4-2-5~-4-2-4-2-4~-0~-0~-0~-4-2-4-2-5~-4-2-4-2-4~-0~-0~-0~-|
   - - - - - - - - - -    - - - -    -  -  -  - - - -    - - - -    -  -  -
...Take this from me, I don't want to hurt you...

D|---------------------------------------------------------------|
A|---------------------------------------------------------------|
F|---------------------------------------------------------------|
C|---------5~---------4~------------------5~---------4~----------|
G|-4-2-4-2-5~-4-2-4-2-4~-0~-0~-0~-4-2-4-2-5~-4-2-4-2-4~-0~-0~-0~-|
C|-4-2-4-2-5~-4-2-4-2-4~-0~-0~-0~-4-2-4-2-5~-4-2-4-2-4~-0~-0~-0~-|
   - - - -    - - - -    -  -  -  - - - -    - - - -    -  -  -
...Take this from me, I DON'T WANT TO HURT YOOOOOOUUUUUUUUUUUU!!!

D|-------------------------------------------------------------|
A|-------------------------------------------------------------|
F|-------------------------------------------------------------|
C|-4-2-4~-5-4-5~-4-2-4~----------4-2-4~-5-4-5~-4-2-4~----------|
G|-4-2-4~-5-4-5~-4-2-4~-0~-0~-0~-4-2-4~-5-4-5~-4-2-4~-0~-0~-0~-|
C|-4-2-4~-5-4-5~-4-2-4~-0~-0~-0~-4-2-4~-5-4-5~-4-2-4~-0~-0~-0~-|
                        -  -  -                       -  -  -
D|-------------------------------------------------------------|
A|-------------------------------------------------------------|
F|-------------------------------------------------------------|
C|-4-2-4~-5-4-5~-4-2-4~----------4-2-4~-5-4-5~-4-2-4~----------|
G|-4-2-4~-5-4-5~-4-2-4~-0~-0~-0~-4-2-4~-5-4-5~-4-2-4~-0~-0~-0~-|
C|-4-2-4~-5-4-5~-4-2-4~-0~-0~-0~-4-2-4~-5-4-5~-4-2-4~-0~-0~-0~-|
                        -  -  -                       -  -  -
Tap to rate this tab
# A B C D E F G H I J K L M N O P Q R S T U V W X Y Z