Song name
# A B C D E F G H I J K L M N O P Q R S T U V W X Y Z

Bullet For My Valentine - Scream Aim Fire tab

Scream Aim Fire solo- Tabbed by: Schad Nelson (linkandnavi@hotmail.com)
Key: 
^~ oblique (scream bend thingy)
^ -bend
~Vibrato

E|-----------15-12-12-12-14-12-12-12-15-12-12-12-17-|
B|-15~^---------------------------------------------|
G|-14~^--12~~---------------------------------------|
D|--------------------------------------------------|
A|--------------------------------------------------|
D|--------------------------------------------------|


E|-12-12-12-15-12-12-12-14-12-12-12-15-12-12-12-17-12-12-12|
B|---------------------------------------------------------|
G|---------------------------------------------------------|
D|---------------------------------------------------------|
A|---------------------------------------------------------|
D|---------------------------------------------------------|


E|-15~^---|
B|-15~^-15|
G|--------|
D|--------|
A|--------|
D|--------|


(sweeping, quite hard)
E|------15-19-15----15-19-15-----14-17-14-----14-17--|
B|-17--17------17--17-------17--16------16—16--------|
G|--16-----------16-----------14----------14---------|
D|---------------------------------------------------|
A|---------------------------------------------------|
D|---------------------------------------------------|


E|--19-17-15-19^~--19-17-15-12~--19-17-19-15-19-13-19|
B|17-------------17------------17--------------------|
G|---------------------------------------------------|
D|---------------------------------------------------|
A|---------------------------------------------------|
D|---------------------------------------------------|


E|---------14-15~|
B|-17-15-17------|
G|---------------|
D|---------------|
A|---------------|
D|---------------|

Transition from picking to taping:
E|-t12-t15-t19-|           E|-t12-t14-t19|
B|-------------|           B|------------|   
G|-------------|X7(I think)G|------------|x8(for sure)
D|-------------|           D|------------|
A|-------------|           A|------------|
D|-------------|           D|------------|

E|-----------------------------------------14-15-17-17~^--|
B|---------------------------------13-15-17---------------|
G|-------------------------12-14-16-----------------------|
D|-----------------12-14-16-------------------------------|
A|---------12-14-15---------------------------------------|
D|-12-14-15-----------------------------------------------|
              ^I think that it should be 13 instead of fourteen, but on the 
youtube vid, that’s what Michael Paget played XD 

On this, bend the fifteen more than the twelve. It should sound really gritty^^
E|-12^~--|
B|-15^~--|
G|-------|
D|-------|
A|-------|
D|-------|

- Tabbed by: Schad Nelson (linkandnavi@hotmail.com)
Tap to rate this tab
 
# A B C D E F G H I J K L M N O P Q R S T U V W X Y Z