Song name
# A B C D E F G H I J K L M N O P Q R S T U V W X Y Z

Bullet For My Valentine - Begging For Mercy tab

Bullet For My Valentine - Begging For Mercy

SOLO TIME

I personally can't WAIT for their new album to come out!
Feel free to comment, and please rate!
For questions/further comments: celldweller09@gmail.com

From: Fever (New album)
Tuning: Drop C (CGCFAD)
Song part: Solo tab

Key:

/ === Slide Up
* === Pick Harmonic
h === Hammer-On
p === Pull-Off
~ === Let Note(s) Ring
v === Vibrato
t === Tremolo Picking

Solo - Guitar 1 (2:50)
D|-------11t-10t--11-10-8---------------------------|
A|------------------------11-10-8-7-8-10-8-7--------|
F|--7-7*-------------------------------------8-7*---|
C|--------------------------------------------------|
G|--------------------------------------------------|
C|--------------------------------------------------|
                           (tapping)
D|----------------------h14p10p9h10(x5)--15-14----------------|
A|---------------------------------------------16-15-16-15----|
F|------------8*v--7*v----------------------------------------|
C|--5*v--7*v--------------------------------------------------|
G|------------------------------------------------------------|
C|------------------------------------------------------------|

(3:01)
D|--/10--/12--/13--/15--15-14h15p14----14---------------|
A|----------------------------------16-----16-15-16-13--|
F|------------------------------------------------------|
C|------------------------------------------------------|
G|------------------------------------------------------|
C|------------------------------------------------------|

D|-10-10h11p10-8-10-8--------------------------------------------|
A|--------------------11-10-8-11-10-8-10-8-7-8-7-------7-8p7-----|
F|-----------------------------------------------8-7-8-------8p7-|
C|---------------------------------------------------------------|
G|---------------------------------------------------------------|
C|---------------------------------------------------------------|

D|-------------------------------|
A|-------------------------------|
F|-------7-------------7--/8*----|
C|----10---10-8-7-8-10-----------|
G|-------------------------------|
C|-------------------------------|

(3:11)
D|-11t-11t-11t-11t-11t~-13t-13t-13t-13t-13t~-15t-15t-15t-15t-15t~|
A|---------------------------------------------------------------|
F|---------------------------------------------------------------|
C|---------------------------------------------------------------|
G|---------------------------------------------------------------|
C|---------------------------------------------------------------|

(3:19)
D|-11-10-8---------------------------------------------|
A|---------11-10-8-7-8-10-8-7--------------------------|
F|----------------------------8-7-5--------------------|
C|----------------------------------8-7-5-4-5-7-4------|
G|------------------------------------------------5----|
C|-----------------------------------------------------|

Tabbed by: CellDwellin09
Enjoy!
Tap to rate this tab
# A B C D E F G H I J K L M N O P Q R S T U V W X Y Z