Song name
# A B C D E F G H I J K L M N O P Q R S T U V W X Y Z

Bullet For My Valentine - The Last Fight tab

Amazing song by an amazing band =].
Some of the parts may be wrong, but it is more of a "difficult" song in the verse part, 
just comment me if something is wrong, or email me at mrmcthode@hotmail.com

ENJOY!!

Bullet for My Valentine
"The Last Fight"
Fever

INTRO---
Both guitars:
(0:02)
|-----------------------------------------------------------------------------|
|-8------8------8------8----------------8------8------8------8----------------|
|-x------x------x------x------5----7----x------x------x------x------5----7----|
|-9------9------9------9------x----x----9------9------9------9------x----x----|
|-7-7777-7-7777-7-7777-7-7777-3-33-5-55-7-7777-7-7777-7-7777-7-7777-3-33-5-55-|
|-----------------------------------------------------------------------------|
    ....   ....   ....   ....   ..   ..   ....   ....   ....   ....   ..   ..

(0:07)
|---------3~~---------------5~~---------|
|-----3~~~~~~-----------5~~~~~~---------|
|---------------------------------------|
|-5~~~~~~~~~~-------7~~~~~~~~~~---------|
|-3~~~~~~~~~~-------5~~~~~~~~~~---------|
|---------------------------------------|

(0:13)
|-----------------------------------------------------------------------------|
|-8------8------8------8----------------8------8------8------8----------------|
|-x------x------x------x------5----7----x------x------x------x------5----7----|
|-9------9------9------9------x----x----9------9------9------9------x----x----|
|-7-7777-7-7777-7-7777-7-7777-3-33-5-55-7-7777-7-7777-7-7777-7-7777-3-33-5-55-|
|-----------------------------------------------------------------------------|
    ....   ....   ....   ....   ..   ..   ....   ....   ....   ....   ..   ..

(0:18)
|---------3~~---------------5~~-----------|
|-----3~~~~~~-----------5~~~~~~-----------|
|-----------------------------------------|
|-5~~~~~~~~~~-------7~~~~~~~~~~----12\\\\-|
|-3~~~~~~~~~~-------5~~~~~~~~~~----12\\\\-|
|----------------------------------12\\\\-|


PREVERSE---
Guitar 1:
(0:23)
|------------------------------------------------------------------|
|------------------------------------------------------------------|
|------------------------------------------------------------------|
|--------5-------5-------5---------------5-------5-------5---------|
|------------------------------------------------------------------|
|-2~--2----2-2-2---2-2-2---2-0-2-4-2~--2---2-2-2---2-2-2---2-0-2-4-|

(0:28)
|-----------------------------------------------------------------|
|-----------------------------------------------------------------|
|-----------------------------------------------------------------|
|-------5-------5-------5---------------5-------5-------5---------|
|-----------------------------------------------------------0-2-4-|
|-2~--2---2-2-2---2-2-2---2-0-2-4-2~--2---2-2-2---2-2-2---2-0-2-4-|
                                                            . . .

Guitar 2:
(0:23)
|-----------------------------------------------------------------|
|-----------------------------------------------------------------|
|--------------let ring throughout the top part-------------------|
|-2~~~~~~~~-------------------------------------------------------|
|-2~~~~~~~~-------------------------------------------------------|
|-2~~~~~~~~-------------------------------------------------------|

(0:28)
|-----------------------------------------------------------------|
|-----------------------------------------------------------------|
|-----------------------------------------------------------------|
|-----------------------------------------------------------------|
|-------2~------2~------2~------2~------2~------2~------2~--0-2-4-|
|-------2~------2~------2~------2~------2~------2~------2~--0-2-4-|
        .       .       .       .       .       .       .   . . .


VERSE 1---
Guitar 1:
(0:33)
"I wanna stand beside you, I'm gonna try to feel the..."
|-----------------------------------------------------------------|
|-----------------------------------------------------------------|
|-----------------------------------------------------------------|
|-------5-------5-------5---------------5-------5-------5---------|
|-2~--2---2-2-2---2-2-2---2-0-2-4-2~--2---2-2-2---2-2-2---2-0-2-4-|
|-2~--2---2-2-2---2-2-2---2-0-2-4-2~--2---2-2-2---2-2-2---2-0-2-4-|

(0:38)
"pain I'm going through, till the death you've seen is through..."
|-----------------------------------------------------------------|
|-----------------------------------------------------------------|
|-----------------------------------------------------------------|
|-------4-------4-------4---------------4-------4---5--4--2--4-5v-|
|-0~--0---0-0-0---0-0-0---0-0-2-4-0~--0---0-0-0---0---------------|
|-0~--0---0-0-0---0-0-0---0-0-2-4-0~--0---0-0-0---0---------------|

(0:44)
"Cold sweats, hallucinations, I wanna speed to stop the..."
|-----------------------------------------------------------------|
|-----------------------------------------------------------------|
|-----------------------------------------------------------------|
|-------5-------5-------5---------------5-------5-------5---------|
|-2~--2---2-2-2---2-2-2---2-0-2-4-2~--2---2-2-2---2-2-2---2-0-2-4-|
|-2~--2---2-2-2---2-2-2---2-0-2-4-2~--2---2-2-2---2-2-2---2-0-2-4-|

(0:49)
"hell I'm going through, the addiction's taking you..."
|-----------------------------------------------------------------|
|-----------------------------------------------------------------|
|-----------------------------------------------------------------|
|-------4-------4-------4---------------4-------4---5--4--2--4-5v-|
|-0~--0---0-0-0---0-0-0---0-0-2-4-0~--0---0-0-0---0---------------|
|-0~--0---0-0-0---0-0-0---0-0-2-4-0~--0---0-0-0---0---------------|

Guitar 2:
(0:33)
|-----------------------------------------------------------------|
|-----------------------------------------------------------------|
|-----------------------------------------------------------------|
|-------5-------5-------5---------------5-------5-------5---------|
|-2~--2---2-2-2---2-2-2---2-0-2-4-2~--2---2-2-2---2-2-2---2-0-2-4-|
|-2~--2---2-2-2---2-2-2---2-0-2-4-2~--2---2-2-2---2-2-2---2-0-2-4-|

(0:38)
|-----------------------------------------------------------------|
|-----------------------------------------------------------------|
|-----------------------------------------------------------------|
|-------4-------4-------4---------------4-------4---9--5--7--5-9v-|
|-0~--0---0-0-0---0-0-0---0-0-2-4-0~--0---0-0-0---0---------------|
|-0~--0---0-0-0---0-0-0---0-0-2-4-0~--0---0-0-0---0---------------|

(0:44)
|-----------------------------------------------------------------|
|-----------------------------------------------------------------|
|-----------------------------------------------------------------|
|-------5-------5-------5---------------5-------5-------5---------|
|-2~--2---2-2-2---2-2-2---2-0-2-4-2~--2---2-2-2---2-2-2---2-0-2-4-|
|-2~--2---2-2-2---2-2-2---2-0-2-4-2~--2---2-2-2---2-2-2---2-0-2-4-|

(0:49)
|-----------------------------------------------------------------|
|-----------------------------------------------------------------|
|-----------------------------------------------------------------|
|-------4-------4-------4---------------4-------4---9--5--7--5-9v-|
|-0~--0---0-0-0---0-0-0---0-0-2-4-0~--0---0-0-0---0---------------|
|-0~--0---0-0-0---0-0-0---0-0-2-4-0~--0---0-0-0---0---------------|


PRECHORUS--- [listen for strumming pattern... I'm too lazy to figure it
out perfectly...]
Guitar 1:
(0:54)
"Can you see me through bloodshot..."
|---------------------------------------------------------------|
|-8---8---8-8-8-8-7--7--7-7-7-7-7-8---8---8-8-8-7--7--7-7-7-7-7-|
|-7---7---7-7-7-7-7--7--7-7-7-7-7-7---7---7-7-7-7--7--7-7-7-7-7-|
|---------------------------------------------------------------|
|---------------------------------------------------------------|
|---------------------------------------------------------------|

(0:59)
"eyes? Should I fight for what is right or let it..."
|---------------------------------------------------------------|
|-8---8---8-8-8-8-7--7--7-7-7-7-7-7---7---7-7-7-7--7--7-7-7-7-7-|
|-7---7---7-7-7-7-7--7--7-7-7-7-7-7---7---7-7-7-7--7--7-7-7-7-7-|
|---------------------------------------------------------------|
|---------------------------------------------------------------|
|---------------------------------------------------------------|

(1:04)
"die? Now I'm choking on force-fed..."
|---------------------------------------------------------------|
|-8---8---8-8-8-8-7--7--7-7-7-7-7-8---8---8-8-8-7--7--7-7-7-7-7-|
|-7---7---7-7-7-7-7--7--7-7-7-7-7-7---7---7-7-7-7--7--7-7-7-7-7-|
|---------------------------------------------------------------|
|---------------------------------------------------------------|
|---------------------------------------------------------------|

(1:09)
"lies, do I fight or let it die? I will..."
|-------------------------------------------------------------------|
|-8---8---10-10-10-7--7--7-7-7-7-7--8-8-8-7-7-7-8-8-8-7-7-7-8-8-7-7-|
|-7---7---7--7--7--7--7--7-7-7-7-7--7-7-7-7-7-7-7-7-7-7-7-7-7-7-7-7-|
|-------------------------------------------------------------------|
|-------------------------------------------------------------------|
|-------------------------------------------------------------------|

Guitar 2:
(0:54)
|--------------------------------------------------------------|
|--------------------------------------------------------------|
|-5~~~~~~~~-----------------------5~~~~~~~~--------------------|
|-5~~~~~~~~-----------------------5~~~~~~~~--------------------|
|-3~~~~~~~~-----------------------3~~~~~~~~--------------------|
|--------------------------------------------------------------|

(0:59)
|--------------------------------------------------------------|
|--------------------------------------------------------------|
|--------------------------------------------------------------|
|-2~~~~~~~~-----------------------0~~~~~~~~--------------------|
|-2~~~~~~~~-----------------------0~~~~~~~~--------------------|
|-2~~~~~~~~-----------------------0~~~~~~~~--------------------|

(1:04)
|--------------------------------------------------------------|
|--------------------------------------------------------------|
|-5~~~~~~~~-----------------------5~~~~~~~~--------------------|
|-5~~~~~~~~-----------------------5~~~~~~~~--------------------|
|-3~~~~~~~~-----------------------3~~~~~~~~--------------------|
|--------------------------------------------------------------|

(1:09)
|-------------------------------------------------------------------|
|-------------------------------------------------------------------|
|-7~~~~~~~~-------------------------7-----7-----7-----7-----7---7---|
|-7~~~~~~~~-------------------------7-7-7-7-7-7-7-7-7-7-7-7-7-7-7-7-|
|-5~~~~~~~~-------------------------5-5-5-5-5-5-5-5-5-5-5-5-5-5-5-5-|
|-------------------------------------------------------------------|
                                      . .   . .   . .   . .   .   .


CHORUS---
Both guitars:
(1:15)
"fight, one more fight, don't break down in front of me, I will..."
|-----------------------------------------------------------------------------|
|-8------8------8------8----------------8------8------8------8----------------|
|-x------x------x------x------5----7----x------x------x------x------5----7----|
|-9------9------9------9------x----x----9------9------9------9------x----x----|
|-7-7777-7-7777-7-7777-7-7777-3-33-5-55-7-7777-7-7777-7-7777-7-7777-3-33-5-55-|
|-----------------------------------------------------------------------------|
    ....   ....   ....   ....   ..   ..   ....   ....   ....   ....   ..   ..

(1:20)
"fight, will you fight? I am not the enemy, I will..."
|---------3~~---------------5~~---------|
|-----3~~~~~~-----------5~~~~~~---------|
|---------------------------------------|
|-5~~~~~~~~~~-------7~~~~~~~~~~---------|
|-3~~~~~~~~~~-------5~~~~~~~~~~---------|
|---------------------------------------|

(1:25)
"try, one last time, are you listening to me? I will..."
|-----------------------------------------------------------------------------|
|-8------8------8------8----------------8------8------8------8----------------|
|-x------x------x------x------5----7----x------x------x------x------5----7----|
|-9------9------9------9------x----x----9------9------9------9------x----x----|
|-7-7777-7-7777-7-7777-7-7777-3-33-5-55-7-7777-7-7777-7-7777-7-7777-3-33-5-55-|
|-----------------------------------------------------------------------------|
    ....   ....   ....   ....   ..   ..   ....   ....   ....   ....   ..   ..

(1:30)
"fight, the last fight, I am not your enemy..."
|---------3~~---------------5~~-----------|
|-----3~~~~~~-----------5~~~~~~-----------|
|-----------------------------------------|
|-5~~~~~~~~~~-------7~~~~~~~~~~----12\\\\-|
|-3~~~~~~~~~~-------5~~~~~~~~~~----12\\\\-|
|----------------------------------12\\\\-|


POSTCHORUS---
Guitar 1:
(1:36)
|---------------------------------|
|---------------------------------|
|---------------------------------|
|-------5-------5-------5---------|
|---------------------------0-2-4-|
|-2~--2---2-2-2---2-2-2---2-0-2-4-|
                            . . .

Guitar 2:
(1:36)
|---------------------------------|
|---------------------------------|
|---------------------------------|
|-2~~~~---------------------------|
|-2~~~~---------------------0-2-4-|
|-2~~~~---------------------0-2-4-|
                            . . .


VERSE 2---
[repeat VERSE 1]
(1:39-1:59)
"Everyone is sick of caring...
No silver lining on the cloud that covers you...
Let it pour and soak through you...
No hope, just desperation...
So sit and wait for death and pray it takes you soon...
The addiction's taking you..."


PRECHORUS---
[repeat PRECHORUS]
(1:59-2:19)
"Can you see me through bloodshot eyes?...
Should I fight another night or let it die?...
Now I'm choking on every lie...
Do I fight or let it die?...
I will..."


CHORUS---
[repeat CHORUS]
(2:20-2:40)
"fight, one more fight...
Don't break down in front of me...
I will fight, will you fight?...
I am not the enemy...
I will try, one last time...
Are you listening to me?...
I will fight, the last fight...
I am not your enemy..."


SOLO---
Guitar 1:
(2:41)
|-15h19p15----15----------15-19-0-17-0-15-0-14-0-|
|----------17----17----17------------------------|
|-------------------16---------------------------|
|------------------------------------------------|
|------------------------------------------------|
|------------------------------------------------|

(2:43)
|-14h17p14----14----------14-17-0-15-0-14-0-12-0-|
|----------15----15----15------------------------|
|-------------------14---------------------------|
|------------------------------------------------|
|------------------------------------------------|
|------------------------------------------------|

(2:46)
|-12h15p12----12----------12-15-0-14-0-12-0-11-0-|
|----------13----13----13------------------------|
|-------------------12---------------------------|
|------------------------------------------------|
|------------------------------------------------|
|------------------------------------------------|

(2:49)
|-11h14p11----11----------------------------14-15-14-|
|----------12----12----12-------------12-15----------|
|-------------------11----11-------11----------------|
|-------------------------------13-------------------|
|----------------------------14----------------------|
|----------------------------------------------------|

(2:51)
|-15h19p15----15----------15-19-0-17-0-15-0-14-0-|
|----------17----17----17------------------------|
|-------------------16---------------------------|
|------------------------------------------------|
|------------------------------------------------|
|------------------------------------------------|

(2:54)
|-14h17p14----14----------14-17-0-15-0-14-0-12-0-|
|----------15----15----15------------------------|
|-------------------14---------------------------|
|------------------------------------------------|
|------------------------------------------------|
|------------------------------------------------|

(2:56)
|-12h15p12----12----------12-15-0-14-0-12-0-11-0-|
|----------13----13----13------------------------|
|-------------------12---------------------------|
|------------------------------------------------|
|------------------------------------------------|
|------------------------------------------------|

(2:59)
|-11h14p11----11----------------------------14-15-|
|----------12----12----12-------------12-15-------|
|-------------------11----11-------11-------------|
|-------------------------------13----------------|
|----------------------------14-------------------|
|-------------------------------------------------|

Guitar 2:
(2:41)
|-----------------------------------------------|
|-----------------------------------------------|
|-------------9~~~~-------5~~~~-----------------|
|-------------9~~~~-------5~~~~-----------------|
|-------------7~~~~-------3~~~~-----------------|
|-----------------------------------------------|

(2:43)
|-----------------------------------------------|
|-----------------------------------------------|
|----7~~~~----------------4~~~~-----------------|
|----7~~~~----------------4~~~~-----------------|
|----5~~~~----------------2~~~~-----------------|
|-----------------------------------------------|

(2:46)
|-----------------------------------------------|
|-----------------------------------------------|
|---5~~~~-----------------2~~~~-----------------|
|---5~~~~-----------------2~~~~-----------------|
|---3~~~~-----------------0~~~~-----------------|
|-----------------------------------------------|

(2:49)
|----------------------------------------------------|
|----------------------------------------------------|
|---4~~~~~~~~----------------------------------------|
|---4~~~~~~~~----------------------------------------|
|---2~~~~~~~~----------------------------------------|
|----------------------------------------------------|

(2:51)
|-19h22p19----19----------19-22-0-21-0-19-0-17-0-|
|----------20----20----20------------------------|
|-------------------19---------------------------|
|------------------------------------------------|
|------------------------------------------------|
|------------------------------------------------|

(2:54)
|-17h20p17----17----------17-20-0-19-0-17-0-15-0-|
|----------19----19----19------------------------|
|-------------------17---------------------------|
|------------------------------------------------|
|------------------------------------------------|
|------------------------------------------------|

(2:56)
|-15h19p15----15----------15-19-0-17-0-15-0-14-0-|
|----------17----17----17------------------------|
|-------------------16---------------------------|
|------------------------------------------------|
|------------------------------------------------|
|------------------------------------------------|

(2:59)
|-14h17p14----14----------------------------17-19-20-|
|----------16----16----16-------------16-19----------|
|-------------------14----14-------16----------------|
|-------------------------------16-------------------|
|----------------------------17----------------------|
|----------------------------------------------------|


PRECHORUS SOLO---
Guitar 1:
(3:02)
|-15~~---14-14-15-14~~---12-12-14-12~~---7-7-10-7~~-|
|---------------------------------------------------|
|---------------------------------------------------|
|---------------------------------------------------|
|---------------------------------------------------|
|---------------------------------------------------|

Guitar 2:
(3:02)
|-19~~---17-17-19-17~~---15-15-17-15~~---12-12-15-12~~-|
|------------------------------------------------------|
|------------------------------------------------------|
|------------------------------------------------------|
|------------------------------------------------------|
|------------------------------------------------------|


PRECHORUS---
[repeat PRECHORUS]
(3:12-3:32)
"Can you feel me through bloodshot eyes?...
Should I fight another night or let it die?...
Now I'm choking on every lie...
Do I fight or let it die?...
I will..."


CHORUS---
[repeat CHORUS]
(3:33-3:53)
"fight, one more fight...
Don't break down in front of me...
I will fight, will you fight?...
I am not the enemy...
I will try, one last time...
Are you listening to me?...
I will fight, the last fight...
I am not your enemy..."


OUTRO---
Guitar 1:
(3:54)
|-----------------------------------------------------------------|
|-----------------------------------------------------------------|
|-----------------------------------------------------------------|
|-------5-------5-------5---------------5-------5-------5---------|
|---------------------------0-2-5---------------------------0-2-5-|
|-2~--2---2-2-2---2-2-2---2-0-2-5-2~--2---2-2-2---2-2-2---2-0-2-5-|
                            . . .                           . . .

(3:59)
|-----------------------------------------------------------------|
|-----------------------------------------------------------------|
|-----------------------------------------------------------------|
|-------5-------5-------5---------------5-------5-------5---------|
|---------------------------0-2-5---------------------------0-2-5-|
|-2~--2---2-2-2---2-2-2---2-0-2-5-2~--2---2-2-2---2-2-2---2-0-2-5-|
                            . . .                           . . .

(4:04)
|-----------------------------------------------------------------|
|-----------------------------------------------------------------|
|-----------------------------------------------------------------|
|-------5-------5-------5---------------5-------5-------5---------|
|---------------------------0-2-4---------------------------0-2-4-|
|-2~--2---2-2-2---2-2-2---2-0-2-4-2~--2---2-2-2---2-2-2---2-0-2-4-|


(4:09)
|-----------------------------------------------------------------|
|-----------------------------------------------------------------|
|-----------------------------------------------------------------|
|-------5-------5-------5---------------5-------5-------5---------|
|---------------------------0-2-4---------------------------0-2-4-|
|-2~--2---2-2-2---2-2-2---2-0-2-4-2~--2---2-2-2---2-2-2---2-0-2-4-|

(4:15)
|----------------|
|----------------|
|----------------|
|----------------|
|-2--2-----------|
|-2--2--2-4-5-2v-|
  .  .

Guitar 2:
(3:54)
|-----------------------------------------------------------------|
|-----------------------------------------------------------------|
|-----------------------------------------------------------------|
|-2-------------------------------2\\-----------------------------|
|-2-------------------------0-2-5-2\\-----------------------0-2-5-|
|-2-------------------------0-2-5-2\\-----------------------0-2-5-|
                            . . .                           . . .

(3:59)
|-----------------------------------------------------------------|
|-----------------------------------------------------------------|
|-----------------------------------------------------------------|
|-2\\-----------------------------2\\-----------------------------|
|-2\\-----------------------0-2-5-2\\-----------------------0-2-5-|
|-2\\-----------------------0-2-5-2\\-----------------------0-2-5-|
                            . . .                           . . .

(4:04)
|-----------------------------------------------------------------|
|-----------------------------------------------------------------|
|-----------------------------------------------------------------|
|-2~--2---2~--2---2~--2---2-0-2-4-2~--2---2~--2---2~--2---2-0-2-4-|
|-2~--2---2~--2---2~--2---2-0-2-4-2~--2---2~--2---2~--2---2-0-2-4-|
|-2~--2---2~--2---2~--2---2-0-2-4-2~--2---2~--2---2~--2---2-0-2-4-|

(4:09)
|-----------------------------------------------------------------|
|-----------------------------------------------------------------|
|-----------------------------------------------------------------|
|-2~--2---2~--2---2~--2---2-0-2-4-2~--2---2~--2---2~--2---2-0-2-4-|
|-2~--2---2~--2---2~--2---2-0-2-4-2~--2---2~--2---2~--2---2-0-2-4-|
|-2~--2---2~--2---2~--2---2-0-2-4-2~--2---2~--2---2~--2---2-0-2-4-|

(4:15)
|----------------|
|----------------|
|----------------|
|----------------|
|-2--2-----------|
|-2--2--2-4-5-2v-|
  .  .
Tap to rate this tab
 
# A B C D E F G H I J K L M N O P Q R S T U V W X Y Z