Song name
# A B C D E F G H I J K L M N O P Q R S T U V W X Y Z

Bullet For My Valentine - Hearts Burst Into Fire tab

        

        CLEAN
        E--------------------------------------|
        B--------------------------------------|
        G-------7---9--7-----9--7-----9--7-----|
        D-----7---7-------7--------7--------7--|
        A---5----------------------------------|
        E--------------------------------------|
            

        E--------------------------------------|
        B--------------------------------------|
        G----9--7----------7---6/7-6-----------|
        D----------7-----7---7-----------------|
        A--------------7--------------7--------| X2
        E--------------------------------------|
            

        E----------------------------------------|
        B--------13------------------------------|
        G--9-10------10-9-10-6/7-5-5-----7-7-----|
        D----------------------------------------|
        A----------------------------------------|
        E----------------------------------------|
            


        E------------------------------------------|
        B------------------------------------------|
        G--9-9--10-10--12-10/12---9-10-9-10-12-10--|
        D------------------------------------------|
        A------------------------------------------|
        E------------------------------------------|
 

        E------------------------------------------|
        B------------------------------------------|
        G--9-10-9-10-12-10-9-10-9-10-12-10-9-10-9--|
        D------------------------------------------|
        A------------------------------------------|
        E------------------------------------------|


        E------------------------------------------|
        B------------------------------------------|
        G--10-12-10-9-10-9-10-12-10-9-8-9-8-9-11---|
        D------------------------------------------|
        A------------------------------------------|
        E------------------------------------------|


        E------------------------------------------|
        B------------------------------------------|
        G--9-8-9-8-9-11-9-8-9-8-9-11-9-8-9-8-9-11--|
        D------------------------------------------|
        A------------------------------------------|
        E------------------------------------------|


        E------------------------------------------|
        B------------------------------------------|
        G--9-8-9-8-9-11--5--7-7--8-8--4-4----------|
        D------------------------------------------|
        A------------------------------------------|
        E------------------------------------------|


        E------------------------------------------|
        B--9-7-5-7-9-10-9--5-5---------------------|
        G------------------------------------------|
        D------------------------------------------|
        A------------------------------------------|
        E------------------------------------------|
Tap to rate this tab
# A B C D E F G H I J K L M N O P Q R S T U V W X Y Z