Guitaretab - guitar tabs
Song name
# A B C D E F G H I J K L M N O P Q R S T U V W X Y Z

Bullet For My Valentine - A Place Where You Belong tab

-------------------------------------------------------------------------------
			     A Place Where You Belong - Bullet For My Valentine
-------------------------------------------------------------------------------
Tabbed by:Adudeduh
Email:adudeduh@aol.com

Tuning:Drop C
[ Tab from: http://www.guitaretab.com/b/bullet-for-my-valentine/222164.html ]
D|-----0------0----0--------0-----0----0--------0------0----0------0---------|
A|---4--4-4----4----4-----4--4-4---4----4-----4--4-4----4----4---4--4-4------|
F|--4-4--4---4----4------4-4--4--4----4------4-4--4---4----4----4-4--4-------|
c|-----------------------------------2---------------------------------------|
G|-4--------4----2------4-------4-----------0--------0----2----0-------2~----|
C|---------------------------------------------------------------------------|

************************************

| /   slide up
| \   slide down
| h   hammer-on
| p   pull-off
| ~   vibrato
| +   harmonic
| x   Mute note
| b   Bend
| pb  Pre-bend
| br  Bend release
| pbr Pre-bend release
| brb Bend release bend

************************************
Related for A Place Where You Belong tab
A Place Where You Belong chords by Bullet For My Valentine