Song name
# A B C D E F G H I J K L M N O P Q R S T U V W X Y Z

Bullet For My Valentine - Breaking Out Breaking Down tab

My favorite song off of "Fever". It's amazing and very easy to play :)

RATE AND COMMENT!!!


Bullet for My Valentine
"Breaking Out, Breaking Down"
Fever



INTRO Part 1---
(0:00)
Guitar 1:
|----------------------------------------------------------------|
|----------------------------------------------------------------|
|---------------6~--------6---4~--------4---2~--------2---1~--2~-|
|-x-x-x-x-x-x-x-4~--4-4-4-4-4-4~--4-4-4-4-4-4~--4-4-4-4-4-2~--4~-|
|-x-x-x-x-x-x-x--------------------------------------------------|
|-x-x-x-x-x-x-x--------------------------------------------------|
                    . . .   .     . . .   .     . . .   .

(0:06)
|--------------------------------------------------|
|--------------------------------------------------|
|-6~--------6---4~--------4---2~--------2---1~--2~-|
|-4~--4-4-4-4-4-4~--4-4-4-4-4-4~--4-4-4-4-4-2~--4~-|
|--------------------------------------------------|
|--------------------------------------------------|
      . . .   .     . . .   .     . . .   .

(0:11)
|--------------------------------------------------|
|-----------------------------5~-------------------|
|-7~--------7---6~--------6---7~--------7---6~--7~-|
|-4~--4-4-4-4-4-4~--4-4-4-4-4-4~--4-4-4-4-4-4~--4~-|
|--------------------------------------------------|
|--------------------------------------------------|

(0:16)
|---------------------------------------------|
|---------------------------------------------|
|-6~--------6---4~--------4---2~--------2---2-|
|-4~--4-4-4-4-4-4~--4-4-4-4-4-4~--4-4-4-4-4-4-|
|---------------------------------------------|
|---------------------------------------------|
      . . .   .     . . .   .     . . .   .

Guitar 2:
(0:00)
|----------------------------------------------------------------|
|----------------------------------------------------------------|
|----------------------------------------------------------------|
|-x-x-x-x-x-x-x-4~~~~~~~~~~~~~~~~--------------------------------|
|-x-x-x-x-x-x-x-4~~~~~~~~~~~~~~~~--------------------------------|
|-x-x-x-x-x-x-x-4~~~~~~~~~~~~~~~~--------------------------------|

(0:06)
|--------------------------------------------------|
|--------------------------------------------------|
|--------------------------------------------------|
|-4~~~~~~~~~~~~~~~~--------------------------------|
|-4~~~~~~~~~~~~~~~~--------------------------------|
|-4~~~~~~~~~~~~~~~~--------------------------------|

(0:11)
|--------------------------------------------------|
|--------------------------------------------------|
|--------------------------------------------------|
|-0~~~~~~~~~~~~~~~~--------------------------------|
|-0~~~~~~~~~~~~~~~~--------------------------------|
|-0~~~~~~~~~~~~~~~~--------------------------------|

(0:16)
|---------------------------------------------|
|---------------------------------------------|
|---------------------------------------------|
|-4~~~~~~~~~~~~~~~~-------------------------4-|
|-4~~~~~~~~~~~~~~~~-------------------------4-|
|-4~~~~~~~~~~~~~~~~-------------------------4-|



INTRO Part 2---
Guitar 1:
(0:21)
|----------------------------------------------------------------------------------|
|-10--10-10-10-10-10-10-10--10-10-10-10-10-10-12--12-12-12-12-12-12-9--9-9--9--9-9-|
|--x---x--x--x--x--x--x--x---x--x--x--x--x--x--x---x--x--x--x--x--x-x--x-x--x--x-x-|
|--7---7--7--7--7--7--7--7---7--7--7--7--7--7--9---9--9--9--9--9--9-6--6-6--6--6-6-|
|----------------------------------------------------------------------------------|
|----------------------------------------------------------------------------------|

(0:26)
|-------------------------------------------------------------------------------------|
|-10--10-10-10-10-10-10-10--10-10-10-10-10-10-10--10-10-10-10-10-10-12--12--12-9--9-9-|
|--x---x--x--x--x--x--x--x---x--x--x--x--x--x--x---x--x--x--x--x--x--x---x---x-x--x-x-|
|--7---7--7--7--7--7--7--7---7--7--7--7--7--7--7---7--7--7--7--7--7--9---9---9-6--6-6-|
|-------------------------------------------------------------------------------------|
|-------------------------------------------------------------------------------------|

(0:31)
|---------------------------------------------------------------------------|
|-7--7-7-7-7-7-7-9--9-9-9-9-9-9-10--10-10-10-10-10-10-12--12-12-12-12-12-12-|
|-x--x-x-x-x-x-x-x--x-x-x-x-x-x--x---x--x--x--x--x--x--x---x--x--x--x--x--x-|
|-4--4-4-4-4-4-4-6--6-6-6-6-6-6--7---7--7--7--7--7--7--9---9--9--9--9--9--9-|
|---------------------------------------------------------------------------|
|---------------------------------------------------------------------------|

(0:36)
|------------------------------------------------------------------------------|
|-10--10-10-10-10-10-10--10-10-10-10-10-10-10--10-10-10-10-10-10---------------|
|--x---x--x--x--x--x--x---x--x--x--x--x--x--x---x--x--x--x--x--x---------------|
|--7---7--7--7--7--7--7---7--7--7--7--7--7--7---7--7--7--7--7--7---------------|
|------------------------------------------------------------------------------|
|----------------------------------------------------------------0--2-4-2--4-6-|

Guitar 2:
(0:21)
|-------------------------------------------------------|
|-------------------------------------------------------|
|-6~--------6---4~--------4---2~--------2---1~--1-2~--1-|
|-4~--4-4-4-4-4-4~--4-4-4-4-4-4~--4-4-4-4-4-2~--2-2~--2-|
|-------------------------------------------------------|
|-------------------------------------------------------|
      . . .   .     . . .   .     . . .   .

(0:26)
|-------------------------------------------------------|
|-------------------------------------------------------|
|-6~--------6---4~--------4---2~--------2---1~--1-2~--1-|
|-4~--4-4-4-4-4-4~--4-4-4-4-4-4~--4-4-4-4-4-2~--2-2~--2-|
|-------------------------------------------------------|
|-------------------------------------------------------|
      . . .   .     . . .   .     . . .   .

(0:31)
|-----------------------------------------------------------------------------------------|
|-10--10-10-10-10-10-10-12--12-12-12-12-12-12-14--14-14-14-14-14-14-15--15-15-15-15-15-15-|
|--x---x--x--x--x--x--x--x---x--x--x--x--x--x--x---x--x--x--x--x--x--x---x--x--x--x--x--x-|
|--7---7--7--7--7--7--7--9---9--9--9--9--9--9-11--11-11-11-11-11-11-12--12-12-12-12-12-12-|
|-----------------------------------------------------------------------------------------|
|-----------------------------------------------------------------------------------------|

(0:36)
|-------------------------------------------------------|
|-------------------------------------------------------|
|-6~--------6---4~--------4---2~--------2---------------|
|-4~--4-4-4-4-4-4~--4-4-4-4-4-4~--4-4-4-4---------------|
|-------------------------------------------------------|
|-----------------------------------------0--2-4-2--4-6-|
      . . .   .     . . .   .     . . .



VERSE 1---
Guitar 1:
(0:41)
|--------------------------------------------------------------|
|--------------------------------------------------------------|
|--------------------------------------------------------------|
|-2~--4-4-------------------------2~--4-4----------------------|
|-2~--4-4-------------------------2~--4-4----------------------|
|-2~--4-4-------------------------2~--4-4--------0--2-4-2--4-6-|

(0:46)
|--------------------------------------------------------------|
|--------------------------------------------------------------|
|--------------------------------------------------------------|
|-2~--4-4-------------------------2~--4-4----------------------|
|-2~--4-4-------------------------2~--4-4----------------------|
|-2~--4-4-------------------------2~--4-4--------0--2-4-2--4-6-|

(0:51)
|--------------------------------------------------------------|
|--------------------------------------------------------------|
|------------------6-4-----------------------------------------|
|-2~--4-4--7-6-4-6-----7-6-4-6-7--2~--4-4----------------------|
|-2~--4-4-------------------------2~--4-4----------------------|
|-2~--4-4-------------------------2~--4-4--------0--2-4-2--4-6-|
           . . . . . . . . . . .

(0:56)
|--------------------------------------------------------------|
|--------------------------------------------------------------|
|------------------6-4-----------------------------------------|
|-2~--4-4--7-6-4-6-----7-6-4-6-7--2~--4-4----------------------|
|-2~--4-4-------------------------2~--4-4----------------------|
|-2~--4-4-------------------------2~--4-4--------0--2-4-2--4-6-|
           . . . . . . . . . . .

Guitar 2:
(0:41)
|--------------------------------------------------------------|
|--------------------------------------------------------------|
|--------------------------------------------------------------|
|-2~--4-4-------------------------2~--4-4----------------------|
|-2~--4-4-------------------------2~--4-4----------------------|
|-2~--4-4-------------------------2~--4-4--------0--2-4-2--4-6-|

(0:46)
|--------------------------------------------------------------|
|--------------------------------------------------------------|
|--------------------------------------------------------------|
|-2~--4-4-------------------------2~--4-4----------------------|
|-2~--4-4-------------------------2~--4-4----------------------|
|-2~--4-4-------------------------2~--4-4--------0--2-4-2--4-6-|

(0:51)
|--------------------------------------------------------------|
|--------------------------------------------------------------|
|--------------------------------------------------------------|
|-2~--4-4-------------------------2~--4-4----------------------|
|-2~--4-4-------------------------2~--4-4----------------------|
|-2~--4-4-------------------------2~--4-4--------0--2-4-2--4-6-|

(0:56)
|--------------------------------------------------------------|
|------------------5-3-----------------------------------------|
|----------6-4-2-4-----6-4-2-4-6-------------------------------|
|-2~--4-4-------------------------2~--4-4----------------------|
|-2~--4-4-------------------------2~--4-4----------------------|
|-2~--4-4-------------------------2~--4-4--------0--2-4-2--4-6-|



PRECHORUS---
Guitar 1:
(1:02)
|----------------------------------------------------|
|-----10-9---/12-10-9-10------10-9---/12-10-9h10p9---|
|----------9-----------------------9---------------9-|
|----------------------------------------------------|
|----------------------------------------------------|
|----------------------------------------------------|

(1:07)
|------------------------------------------------|
|-----10-9---/12-10-9-10------10-9---/12-10-9-10-|
|----------9-----------------------9-------------|
|------------------------------------------------|
|------------------------------------------------|
|------------------------------------------------|

Guitar 2:
(1:02)
|----------------------------------------------------|
|----------------------------------------------------|
|----------------------------------------------------|
|-0~~~~~~~~~~-------------7~~~~~~~~~~----------------|
|-0~~~~~~~~~~-------------7~~~~~~~~~~----------------|
|-0~~~~~~~~~~-------------7~~~~~~~~~~----------------|

(1:07)
|--------------------------------------------------|
|----14-12----15-14-12-14-----14-12----15-14-12-14-|
|----------14-----------------------14-------------|
|--------------------------------------------------|
|--------------------------------------------------|
|--------------------------------------------------|



CHORUS---
Guitar 1:
(1:12)
|------------------------------------------------------|
|------------------------------------------10--10-9--9-|
|-6~--------6---4~--------4---2~--------2---x---x-x--x-|
|-4~--4-4-4-4-4-4~--4-4-4-4-4-4~--4-4-4-4---7---7-6--6-|
|------------------------------------------------------|
|------------------------------------------------------|
      . . .   .     . . .   .     . . .   

(1:17)
|------------------------------------------------------|
|------------------------------------------10--10-9--9-|
|-6~--------6---4~--------4---2~--------2---x---x-x--x-|
|-4~--4-4-4-4-4-4~--4-4-4-4-4-4~--4-4-4-4---7---7-6--6-|
|------------------------------------------------------|
|------------------------------------------------------|
      . . .   .     . . .   .     . . . 

(1:22)
|---------------------------------------------------------------------------|
|-7--7-7-7-7-7-7-9--9-9-9-9-9-9-10--10-10-10-10-10-10-12--12-12-12-12-12-12-|
|-x--x-x-x-x-x-x-x--x-x-x-x-x-x--x---x--x--x--x--x--x--x---x--x--x--x--x--x-|
|-4--4-4-4-4-4-4-6--6-6-6-6-6-6--7---7--7--7--7--7--7--9---9--9--9--9--9--9-|
|---------------------------------------------------------------------------|
|---------------------------------------------------------------------------|

(1:27)
|-------------------------------------------------------|
|-------------------------------------------------------|
|-6~--------6---4~--------4---2~--------2---------------|
|-4~--4-4-4-4-4-4~--4-4-4-4-4-4~--4-4-4-4---------------|
|-------------------------------------------------------|
|-----------------------------------------0--2-4-2--4-6-|
      . . .   .     . . .   .     . . .

Guitar 2:
(1:12)
|-------------------------------------------------------|
|-----------------------------------------14--14-12--12-|
|------------------------------------------x---x--x---x-|
|-4~--------4---4~--------4---4~--------4-11--11--9---9-|
|-4~--4-4-4-4-4-4~--4-4-4-4-4-4~--4-4-4-4---------------|
|-4~--4-4-4-4-4-4~--4-4-4-4-4-4~--4-4-4-4---------------|
      . . .   .     . . .   .     . . .

(1:17)
|-------------------------------------------------------|
|-----------------------------------------14--14-12--12-|
|------------------------------------------x---x--x---x-|
|-4~--------4---4~--------4---4~--------4-11--11--9---9-|
|-4~--4-4-4-4-4-4~--4-4-4-4-4-4~--4-4-4-4---------------|
|-4~--4-4-4-4-4-4~--4-4-4-4-4-4~--4-4-4-4---------------|
      . . .   .     . . .   .     . . .

(1:22)
|-----------------------------------------------------------------------------------------|
|-10--10-10-10-10-10-10-12--12-12-12-12-12-12-14--14-14-14-14-14-14-15--15-15-15-15-15-15-|
|--x---x--x--x--x--x--x--x---x--x--x--x--x--x--x---x--x--x--x--x--x--x---x--x--x--x--x--x-|
|--7---7--7--7--7--7--7--9---9--9--9--9--9--9-11--11-11-11-11-11-11-12--12-12-12-12-12-12-|
|-----------------------------------------------------------------------------------------|
|-----------------------------------------------------------------------------------------|

(1:27)
|-------------------------------------------------------|
|-------------------------------------------------------|
|-------------------------------------------------------|
|-4~--------4---4~--------4---4~--------4---------------|
|-4~--4-4-4-4-4-4~--4-4-4-4-4-4~--4-4-4-4---------------|
|-4~--4-4-4-4-4-4~--4-4-4-4-4-4~--4-4-4-4-0--2-4-2--4-6-|
      . . .   .     . . .   .     . . .



VERSE 2---
[repeat VERSE 1]
(1:32-1:52)



PRECHORUS---
[repeat PRECHORUS]
(1:53-2:02)



CHORUS---
[repeat CHORUS]
(2:03-2:22)



BRIDGE Part 1---
Guitar 1:
(2:23)
|-------------------------------------------------|
|-------------------------------------------------|
|------------------------------------7~--7--------|
|-4~--4-6b7br6-4-4v~--4~--4-6b7br6-4-7~--7--2~--2-|
|-4~--4---------------4~--4----------5~--5--2~--2-|
|-4~--4---------------4~--4-----------------2~--2-|

(2:28)
|-------------------------------------------------|
|-------------------------------------------------|
|------------------------------------7~--7--------|
|-4~--4-6b7br6-7-4v~--4~--4-6b7br6-4-7~--7--2~--2-|
|-4~--4---------------4~--4----------5~--5--2~--2-|
|-4~--4---------------4~--4-----------------2~--2-|

(2:33)
|-------------------------------------------------|
|-------------------------------------------------|
|------------------------------------7~--7--------|
|-4~--4-6b7br6-4-4v~--4~--4-6b7br6-4-7~--7--2~--2-|
|-4~--4---------------4~--4----------5~--5--2~--2-|
|-4~--4---------------4~--4-----------------2~--2-|

(2:38)
|-------------------------------------------------|
|-------------------------------------------------|
|------------------------------------7~--7--------|
|-4~--4-6b7br6-7-4v~--4~--4-6b7br6-4-7~--7--2~--2-|
|-4~--4---------------4~--4----------5~--5--2~--2-|
|-4~--4---------------4~--4-----------------2~--2-|

Guitar 2:
(2:23)
|-------------------------------------------------|
|-------------------------------------------------|
|------------------------------------7~--7--------|
|-4~--4---------------4~--4----------7~--7--2~--2-|
|-4~--4---------------4~--4----------5~--5--2~--2-|
|-4~--4---------------4~--4-----------------2~--2-|

(2:28)
|-------------------------------------------------|
|-------------------------------------------------|
|------------------------------------7~--7--------|
|-4~--4---------------4~--4----------7~--7--2~--2-|
|-4~--4---------------4~--4----------5~--5--2~--2-|
|-4~--4---------------4~--4-----------------2~--2-|

(2:33)
|---------------------------------------------------|
|---------------------------------------------------|
|--------------------------------------7~--7--------|
|-4~--4-9b11br9-7-7v~--4~--4-9b11br9-7-7~--7--2~--2-|
|-4~--4----------------4~--4-----------5~--5--2~--2-|
|-4~--4----------------4~--4------------------2~--2-|

(2:38)
|----------------------------------------------------|
|----------------------------------------------------|
|---------------------------------------7~--7--------|
|-4~--4-9b11br9-11-7v~--4~--4-9b11br9-7-7~--7--2~--2-|
|-4~--4-----------------4~--4-----------5~--5--2~--2-|
|-4~--4-----------------4~--4------------------2~--2-|



BRIDGE Part 2---
Both guitars:
(2:43)
|--------------------------------------------------------|
|--------------------------------------------------------|
|--------------------------------------------------------|
|-0~-----------------------2~----------2-------2-------2-|
|-0~--0--0--0--0--0--0-0-0-2~--2-2-2-2-2-2-2-2-2-2-2-2-2-|
|-0~--0--0--0--0--0--0-0-0-2~--2-2-2-2-2-2-2-2-2-2-2-2-2-|
      .  .  .  .  .  . . .     . . . .   . . .   . . .

(2:48)
|----------------------------------------------------|
|----------------------------------------------------|
|----------------------------------------------------|
|-0~-----------------------2~----------2---4-4--7--2-|
|-0~--0--0--0--0--0--0-0-0-2~--2-2-2-2-2---4-4--7--2-|
|-0~--0--0--0--0--0--0-0-0-2~--2-2-2-2-2---4-4--7--2-|
      .  .  .  .  .  . . .     . . . .              

(2:54)
|--------------------------------------------------------|
|--------------------------------------------------------|
|--------------------------------------------------------|
|-0~-----------------------2~----------2-------2-------2-|
|-0~--0--0--0--0--0--0-0-0-2~--2-2-2-2-2-2-2-2-2-2-2-2-2-|
|-0~--0--0--0--0--0--0-0-0-2~--2-2-2-2-2-2-2-2-2-2-2-2-2-|
      .  .  .  .  .  . . .     . . . .   . . .   . . .

(2:59)
|------------------------------------------------------|
|------------------------------------------------------|
|------------------------------------------------------|
|-0~-----------------------2~----------2-x-x-x-x-x-x-x-|
|-0~--0--0--0--0--0--0-0-0-2~--2-2-2-2-2-x-x-x-x-x-x-x-|
|-0~--0--0--0--0--0--0-0-0-2~--2-2-2-2-2-x-x-x-x-x-x-x-|
      .  .  .  .  .  . . .     . . . .



BRIDGE Part 3---
Both guitars:
(3:04)
|-------------------------------------------------------|
|-------------------------------------------------------|
|-------------------------------------------------------|
|-4~--------4---4~--------4---4~--------4---------------|
|-4~--4-4-4-4-4-4~--4-4-4-4-4-4~--4-4-4-4---------------|
|-4~--4-4-4-4-4-4~--4-4-4-4-4-4~--4-4-4-4-0--2-4-2--4-6-|
      . . .   .     . . .   .     . . .

(3:09)
|-------------------------------------------|
|-------------------------------------------|
|-------------------------------------------|
|-4~--------4---4~--------4---4~--------4-0-|
|-4~--4-4-4-4-4-4~--4-4-4-4-4-4~--4-4-4-4-0-|
|-4~--4-4-4-4-4-4~--4-4-4-4-4-4~--4-4-4-4-0-|
      . . .   .     . . .   .     . . .



CHORUS---
[repeat CHORUS]
(3:14-3:34)



OUTRO--- [clean]
Guitar 1:
(3:34)
|--------------------------------------------------|
|-----10-9---12-10-9-10------10-9---12-10-9h10p9---|
|----------9----------------------9--------------9-|
|--------------------------------------------------|
|--------------------------------------------------|
|--------------------------------------------------|

(3:39)
|--------------------------------------------------|
|-----10-9---12-10-9-10------10-9---12-10-9h10p9---|
|----------9----------------------9--------------9-|
|--------------------------------------------------|
|--------------------------------------------------|
|--------------------------------------------------|

(3:44)
|--------------------------------------------------|
|-----10-9---12-10-9-10------10-9---12-10-9h10p9---|
|----------9----------------------9--------------9-|
|--------------------------------------------------|
|--------------------------------------------------|
|--------------------------------------------------|

(3:50)
|----------------------------|
|-----10-9---12-10-9-10------|
|----------9-----------------|
|----------------------------|
|----------------------------|
|-----------------------0~~~-|

Guitar 2:
(3:34)
|---------------------|
|---------------------|
|---------------------|
|-0~~~~~~~~~~~~~------|
|-0~~~~~~~~~~~~~------|
|-0~~~~~~~~~~~~~------|

(3:39)
|---------------------|
|---------------------|
|---------------------|
|-~~~~~~~~~~~~~~------|
|-~~~~~~~~~~~~~~------|
|-~~~~~~~~~~~~~~------|

(3:44)
|--------------------------------------------------------|
|----14-12----15-14-12-14-----14-12----15-14-12h14p12----|
|----------14-----------------------14----------------14-|
|--------------------------------------------------------|
|--------------------------------------------------------|
|--------------------------------------------------------|

(3:50)
|------------------------------|
|----14-12----15-14-12-14------|
|----------14------------------|
|------------------------------|
|------------------------------|
|-------------------------0~~~-|
Tap to rate this tab
# A B C D E F G H I J K L M N O P Q R S T U V W X Y Z