Song name
# A B C D E F G H I J K L M N O P Q R S T U V W X Y Z

Bullet For My Valentine - Pretty On The Outside tab

Awesome song :) prolly the easiest to play on the album...

Bullet for My Valentine
"Pretty on the Outside"
Fever


INTRO Part 1---
Both guitars:
(0:00)
|--8--8---8---8--8---8---8---8--8---8---8--8---8---8-|
|-10-10--10--10-10--10--10--10-10--10--10-10--10--10-|
|--6--6---6---6--6---6---6---6--6---6---6--6---6---6-|
|----------------------------------------------------|
|----------------------------------------------------|
|----------------------------------------------------|

(0:03)
|-8-8--8--8-8--8--8--8-8--8--8-8-|
|-9-9--9--9-9--9--9--7-7--7--7-7-|
|-6-6--6--6-6--6--6--6-6--6--6-6-|
|--------------------------------|
|--------------------------------|
|--------------------------------|




INTRO Part 2---
Guitar 1:
(0:07)
|-----------------------------------------|
|-7-7--7--7-7--7--7/10-10--10--10-9--9--9-|
|-x-x--x--x-x--x--x/-x--x---x---x-x--x--x-|
|-4-4--4--4-4--4--4/-7--7---7---7-6--6--6-|
|-----------------------------------------|
|-----------------------------------------|

(0:10)
|--------------------------------------|
|-5-5--5--5-5--5--5--5-5--5--5-5--5--5-|
|-x-x--x--x-x--x--x--x-x--x--x-x--x--x-|
|-2-2--2--2-2--2--2--2-2--2--2-2--2--2-|
|--------------------------------------|
|--------------------------------------|

(0:14)
|-----------------------------------------|
|-7-7--7--7-7--7--7--9-9--9--9-10--10--10-|
|-x-x--x--x-x--x--x--x-x--x--x--x---x---x-|
|-4-4--4--4-4--4--4--6-6--6--6--7---7---7-|
|-----------------------------------------|
|-----------------------------------------|

(0:17)
|---------------------------------------------------------|
|-/14-14--14-14--14--14--14--12-12--12--12-12--12--12--12-|
|-/-x--x---x--x---x---x---x---x--x---x---x--x---x---x---x-|
|-/11-11--11-11--11--11--11---9--9---9---9--9---9---9---9-|
|---------------------------------------------------------|
|---------------------------------------------------------|

(0:21)
|-------------------------------------------------|
|-12-10--10--10-10--10--10--10-10--10--10-9--9--9-|
|--x--x---x---x--x---x---x---x--x---x---x-x--x--x-|
|--9--7---7---7--7---7---7---7--7---7---7-6--6--6-|
|-------------------------------------------------|
|-------------------------------------------------|

(0:24)
|--------------------------------------|
|-5-5--5--5-5--5--5--5-5--5--5-5--5--5-|
|-x-x--x--x-x--x--x--x-x--x--x-x--x--x-|
|-2-2--2--2-2--2--2--2-2--2--2-2--2--2-|
|--------------------------------------|
|--------------------------------------|

Guitar 2:
(0:07)
|--------------------------------------|
|--------------------------------------|
|--------------------------------------|
|-4-4--4--4-4~~~~----4-4--4--4-4--4--4-|
|-4-4--4--4-4~~~~----4-4--4--4-4--4--4-|
|-4-4--4--4-4~~~~----4-4--4--4-4--4--4-|

(0:10)
|--------------------------------------|
|--------------------------------------|
|--------------------------------------|
|-0-0--0--0-0~~~~----0-0--0--0-0--0--0-|
|-0-0--0--0-0~~~~----0-0--0--0-0--0--0-|
|-0-0--0--0-0~~~~----0-0--0--0-0--0--0-|

(0:14)
|--------------------------------------|
|--------------------------------------|
|--------------------------------------|
|-4-4--4--4-4~~~~----4-4--4--4-4--4--4-|
|-4-4--4--4-4~~~~----4-4--4--4-4--4--4-|
|-4-4--4--4-4~~~~----4-4--4--4-4--4--4-|

(0:17)
|----------------------------------------|
|----------------------------------------|
|----------------------------------------|
|-2-2--2--2-2~~~~------------------------|
|-2-2--2--2-2~~~~----2-2--2--2-2--2--2-2-|
|-2-2--2--2-2~~~~----2-2--2--2-2--2--2-2-|
                     . .  .  . .  .  . .

(0:21)
|--------------------------------------|
|--------------------------------------|
|--------------------------------------|
|-0-0--0--0-0~~~~----0-0--0--0-0--0--0-|
|-0-0--0--0-0~~~~----0-0--0--0-0--0--0-|
|-0-0--0--0-0~~~~----0-0--0--0-0--0--0-|

(0:24)
|--------------------------------------|
|--------------------------------------|
|--------------------------------------|
|-2-2--2--2-2~~~~----2-2--2--2-2--2--2-|
|-2-2--2--2-2~~~~----2-2--2--2-2--2--2-|
|-2-2--2--2-2~~~~----2-2--2--2-2--2--2-|



PREVERSE---
Guitar 1:
(0:28)
|-------------------------------------------------|
|-------------------------------------------------|
|-------------------------------------------------|
|---4---6---7---------------4---6---7-------------|
|-------------------------------------------------|
|-4---4---4---4-4-4-4-4-4-4---4---4---4-4-4-4-4-4-|
  .   .   .   . . . . . . .   .   .   . . . . . .

Guitar 2:
(0:28)
|--------------------------------------------------|
|--------------------------------------------------|
|--------------------------------------------------|
|-4-----------4-----------4------------------------|
|-4-----------4-----------4------------------------|
|-4-----------4-----------4-----------16\\\\\\\----|



VERSE 1---
(0:32)
"So you wanna play games with my head, but you..."
|-------------------------------------------------|
|-------------------------------------------------|
|-------------------------------------------------|
|---4---6---7---------------4---6---7-------------|
|-------------------------------------------------|
|-4---4---4---4-4-4-4-4-4-4---4---4---4-4-4-4-4-4-|
  .   .   .   . . . . . . .   .   .   . . . . . .

(0:35)
"make me fall apart, I wish that I was dead, I just..."
|-------------------------------------------------|
|-------------------------------------------------|
|-------------------------------------------------|
|---4---6-------------------4---6-----------------|
|-----------7-----------------------7-------------|
|-0---0---0---0-0-0-0-0-0-0---0---0---0-0-0-0-0-0-|
  .   .   .   . . . . . . .   .   .   . . . . . .

(0:38)
"can't believe I fell for such a blackened heart, you..."
|-------------------------------------------------|
|-------------------------------------------------|
|-------------------------------------------------|
|---4---6---7---------------4---6---7-------------|
|-------------------------------------------------|
|-4---4---4---4-4-4-4-4-4-4---4---4---4-4-4-4-4-4-|
  .   .   .   . . . . . . .   .   .   . . . . . .

(0:42)
"take me for a fool, and used me from the start..."
|-------------------------------------------------|
|-------------------------------------------------|
|-------------------------------------------------|
|---4---6-------------------4---6-----------------|
|-----------7-----------------------7-------------|
|-0---0---0---0-0-0-0-0-0-0---0---0---0-0-0-0-0-0-|
  .   .   .   . . . . . . .   .   .   . . . . . .

(0:45)
"Fuck you, I just..."
|-------------------------------------------------|
|-------------------------------------------------|
|-------4---6-------------------4---6-------------|
|---7-----------------------7---------------------|
|-------------------------------------------------|
|-4---4---4---4-4-4-4-4-4-4---4---4---4-4-4-4-4-4-|
  .   .   .   . . . . . . .   .   .   . . . . . .

(0:49)
"want to know the truth but the words for your mouth, they just..."
|-------------------------------------------------|
|-------------------------------------------------|
|-------4-----------------------4-----------------|
|---7-------6---------------7-------6-------------|
|-------------------------------------------------|
|-0---0---0---0-0-0-0-0-0-0---0---0---0-0-0-0-0-0-|
  .   .   .   . . . . . . .   .   .   . . . . . .

(0:52)
"cloud all the negativity..."
|-------------------------------------------------|
|-------------------------------------------------|
|-------4---6-------------------4---6-------------|
|---7-----------------------7---------------------|
|-------------------------------------------------|
|-4---4---4---4-4-4-4-4-4-4---4---4---4-4-4-4-4-4-|
  .   .   .   . . . . . . .   .   .   . . . . . .

(0:56)
"forces me down into silence, but still I can..."
|-------------------------------------------------|
|-------------------------------------------------|
|-------4-----------------------4-----------------|
|---7-------6---------------7-------6-------------|
|-------------------------------------------------|
|-0---0---0---0-0-0-0-0-0-0---0---0---0-0-0-0-0-0-|
  .   .   .   . . . . . . .   .   .   . . . . . .

Guitar 2:
(0:32)
|-------------------------------------------------|
|-------------------------------------------------|
|-------------------------------------------------|
|---4---6---7---------------4---6---7-------------|
|-------------------------------------------------|
|-4---4---4---4-4-4-4-4-4-4---4---4---4-4-4-4-4-4-|
  .   .   .   . . . . . . .   .   .   . . . . . .

(0:35)
|-------------------------------------------------|
|-------------------------------------------------|
|-------------------------------------------------|
|---4---6-------------------4---6-----------------|
|-----------7-----------------------7-------------|
|-0---0---0---0-0-0-0-0-0-0---0---0---0-0-0-0-0-0-|
  .   .   .   . . . . . . .   .   .   . . . . . .

(0:38)
|-------------------------------------------------|
|-------------------------------------------------|
|-------------------------------------------------|
|---4---6---7---------------4---6---7-------------|
|-------------------------------------------------|
|-4---4---4---4-4-4-4-4-4-4---4---4---4-4-4-4-4-4-|
  .   .   .   . . . . . . .   .   .   . . . . . .

(0:42)
|-------------------------------------------------|
|-------------------------------------------------|
|-------------------------------------------------|
|---4---6-------------------4---6-----------------|
|-----------7-----------------------7-------------|
|-0---0---0---0-0-0-0-0-0-0---0---0---0-0-0-0-0-0-|
  .   .   .   . . . . . . .   .   .   . . . . . .

(0:45)
|-------------------------------------------------|
|-------------------------------------------------|
|-------------------------------------------------|
|---4---6---7---------------4---6---7-------------|
|-------------------------------------------------|
|-4---4---4---4-4-4-4-4-4-4---4---4---4-4-4-4-4-4-|
  .   .   .   . . . . . . .   .   .   . . . . . .

(0:49)
|-------------------------------------------------|
|-------------------------------------------------|
|-------------------------------------------------|
|---4---6-------------------4---6-----------------|
|-----------7-----------------------7-------------|
|-0---0---0---0-0-0-0-0-0-0---0---0---0-0-0-0-0-0-|
  .   .   .   . . . . . . .   .   .   . . . . . .

(0:52)
|-------------------------------------------------|
|-------------------------------------------------|
|-------------------------------------------------|
|---4---6---7---------------4---6---7-------------|
|-------------------------------------------------|
|-4---4---4---4-4-4-4-4-4-4---4---4---4-4-4-4-4-4-|
  .   .   .   . . . . . . .   .   .   . . . . . .

(0:56)
|-------------------------------------------------|
|-------------------------------------------------|
|-------------------------------------------------|
|---4---6-------------------4---6-----------------|
|-----------7-----------------------7-------------|
|-0---0---0---0-0-0-0-0-0-0---0---0---0-0-0-0-0-0-|
  .   .   .   . . . . . . .   .   .   . . . . . .



PRECHORUS---
Both guitars:
(1:00)
"dream... I wanna know, I wanna know..."
|-----------------------------------------|
|-------5~~~~---------5~~~~---------------|
|-------4~~~~---------4~~~~---------------|
|-2~~~~~~~~~~----2~~~~~~~~~----0~~~~~~~~~-|
|-2~~~~~~~~~~----2~~~~~~~~~----0~~~~~~~~~-|
|-2~~~~~~~~~~----2~~~~~~~~~----0~~~~~~~~~-|


"if... I..."



CHORUS---
[repeat INTRO]
(1:07-1:28)
"tear you open wide, take a look inside, are you pretty?...
Can I get inside your mind, see what I can find, are you pretty?...
So just take off that disguise, everyone knows that you're lonely...
Pretty on the outside..."



PREVERSE---
[repeat PREVERSE]
(1:28-1:32)



VERSE 2---
Both guitars:
(1:32)
"And now I fucking hate you, with all of my heart, so..."
|-------------------------------------------------|
|-------------------------------------------------|
|-------------------------------------------------|
|---4---6---7---------------4---6---7-------------|
|-------------------------------------------------|
|-4---4---4---4-4-4-4-4-4-4---4---4---4-4-4-4-4-4-|
  .   .   .   . . . . . . .   .   .   . . . . . .

(1:35)
"just disappear, and never will I fear for my..."
|-------------------------------------------------|
|-------------------------------------------------|
|-------------------------------------------------|
|---4---6-------------------4---6-----------------|
|-----------7-----------------------7-------------|
|-0---0---0---0-0-0-0-0-0-0---0---0---0-0-0-0-0-0-|
  .   .   .   . . . . . . .   .   .   . . . . . .

(1:39)
"life, but I just want to be alone, and..."
|-------------------------------------------------|
|-------------------------------------------------|
|-------------------------------------------------|
|---4---6---7---------------4---6---7-------------|
|-------------------------------------------------|
|-4---4---4---4-4-4-4-4-4-4---4---4---4-4-4-4-4-4-|
  .   .   .   . . . . . . .   .   .   . . . . . .

(1:42)
"never, no never, will I be unhappy alone..."
|-------------------------------------------------|
|-------------------------------------------------|
|-------------------------------------------------|
|---4---6-------------------4---6-----------------|
|-----------7-----------------------7-------------|
|-0---0---0---0-0-0-0-0-0-0---0---0---0-0-0-0-0-0-|
  .   .   .   . . . . . . .   .   .   . . . . . .



PRECHORUS---
[repeat PRECHORUS]
(1:46)
"I wanna know, I wanna know..."


"if I..."



CHORUS---
[repeat CHORUS]
(1:53-2:13)
"tear you open wide, take a look inside, are you pretty?...
Can I get inside your mind, see what I can find, are you pretty?...
So just take off that disguise, everyone knows that you're lonely...
Pretty on the outside..."



BRIDGE---
Guitar 1:
(2:14)
|-------------------------------------------------|
|-------------------------------------------------|
|---4---6---7---------------4---6---7-------------|
|-4---4---4---4-4-4-4-4-4-4---4---4---4-4-4-4-4-4-|
|-------------------------------------------------|
|-------------------------------------------------|
  .   .   .   . . . . . . .   .   .   . . . . . .

(2:17)
|-------------------------------------------------|
|-------------------------------------------------|
|-----------4-----------------------4-------------|
|-0-6-0-7-0---0-0-0-0-0-0-0-6-0-7-0---0-0-0-0-0-0-|
|-------------------------------------------------|
|-------------------------------------------------|
  .   .   .   . . . . . . .   .   .   . . . . . .

(2:21)
|-------------------------------------------------|
|-------------------------------------------------|
|---2---4---6---------------2---4---6-------------|
|-2---2---2---2-2-2-2-2-2-2---2---2---2-2-2-2-2-2-|
|-------------------------------------------------|
|-------------------------------------------------|
  .   .   .   . . . . . . .   .   .   . . . . . .

(2:25)
|-------------------------------------------------|
|-------------------------------------------------|
|-------------------------------------------------|
|---4---6---7---------------4---6---7-------------|
|-4---4---4---4-4-4-4-4-4-4---4---4---4-4-4-4-4-4-|
|-------------------------------------------------|
  .   .   .   . . . . . . .   .   .   . . . . . . 

(2:28)
"So you wanna play games with my head, but you..."
|-------------------------------------------------|
|-------------------------------------------------|
|---4---6---7---------------4---6---7-------------|
|-4---4---4---4-4-4-4-4-4-4---4---4---4-4-4-4-4-4-|
|-------------------------------------------------|
|-------------------------------------------------|
  .   .   .   . . . . . . .   .   .   . . . . . .

(2:32)
"make me fall apart, I wish that I was dead..."
|-------------------------------------------------|
|-------------------------------------------------|
|-----------4-----------------------4-------------|
|-0-6-0-7-0---0-0-0-0-0-0-0-6-0-7-0---0-0-0-0-0-0-|
|-------------------------------------------------|
|-------------------------------------------------|
  .   .   .   . . . . . . .   .   .   . . . . . .

(2:35)
"Can't believe I fell, for such a blackened heart, you..."
|-------------------------------------------------|
|-------------------------------------------------|
|---2---4---6---------------2---4---6-------------|
|-2---2---2---2-2-2-2-2-2-2---2---2---2-2-2-2-2-2-|
|-------------------------------------------------|
|-------------------------------------------------|
  .   .   .   . . . . . . .   .   .   . . . . . .

(2:39)
"played me for a fool, and used me from the start..."
|-------------------------------------------------|
|-------------------------------------------------|
|-------------------------------------------------|
|---4---6---7---------------4---6---7-------------|
|-4---4---4---4-4-4-4-4-4-4---4---4---4-4-4-4-4-4-|
|-------------------------------------------------|
  .   .   .   . . . . . . .   .   .   . . . . . .

(2:42)
"I just want to know the truth but the..."
|-------------------------------------------------|
|-------------------------------------------------|
|---4---6---7---------------4---6---7-------------|
|-4---4---4---4-4-4-4-4-4-4---4---4---4-4-4-4-4-4-|
|-------------------------------------------------|
|-------------------------------------------------|
  .   .   .   . . . . . . .   .   .   . . . . . .

(2:46)
"words from your mouth, all your negativity, it just..."
|-------------------------------------------------|
|-------------------------------------------------|
|-----------4-----------------------4-------------|
|-0-6-0-7-0---0-0-0-0-0-0-0-6-0-7-0---0-0-0-0-0-0-|
|-------------------------------------------------|
|-------------------------------------------------|
  .   .   .   . . . . . . .   .   .   . . . . . .

(2:49)
"forces me down into silence I can dream, into..."
|-------------------------------------------------|
|-------------------------------------------------|
|---2---4---6---------------2---4---6-------------|
|-2---2---2---2-2-2-2-2-2-2---2---2---2-2-2-2-2-2-|
|-------------------------------------------------|
|-------------------------------------------------|
  .   .   .   . . . . . . .   .   .   . . . . . .

(2:53)
"silence I can dream, into silence I can dream..."
|-------------------------------------------------|
|-------------------------------------------------|
|-------------------------------------------------|
|---4---6---7---------------4---6---7-------------|
|-4---4---4---4-4-4-4-4-4-4---4---4---4-4-4-4-4-4-|
|-------------------------------------------------|
  .   .   .   . . . . . . .   .   .   . . . . . .

Guitar 2:
(2:14)
|-------------------------------------------------|
|-------------------------------------------------|
|-------------------------------------------------|
|-4~~~~~~~~~~~~~~~~-------------------------------|
|-4~~~~~~~~~~~~~~~~-------------------------------|
|-4~~~~~~~~~~~~~~~~-------------------------------|

(2:17)
|-------------------------------------------------|
|-------------------------------------------------|
|-------------------------------------------------|
|-0~~~~~~~~~~~~~~~~-------------------------------|
|-0~~~~~~~~~~~~~~~~-------------------------------|
|-0~~~~~~~~~~~~~~~~-------------------------------|

(2:21)
|-------------------------------------------------|
|-------------------------------------------------|
|-------------------------------------------------|
|-2~~~~~~~~~~~~~~~~-------------------------------|
|-2~~~~~~~~~~~~~~~~-------------------------------|
|-2~~~~~~~~~~~~~~~~-------------------------------|

(2:25)
|-------------------------------------------------|
|-------------------------------------------------|
|-6~~~~~~~~~~~~~~~~-------------------------------|
|-6~~~~~~~~~~~~~~~~-------------------------------|
|-4~~~~~~~~~~~~~~~~-------------------------------|
|-------------------------------------------------|

(2:28)
|-------------------------------------------------|
|-------------------------------------------------|
|-------------------------------------------------|
|-------------------------------------------------|
|-4-4-4-4-4-4-4-----------4-4-4-4-4-4-4-----------|
|-4-4-4-4-4-4-4-----------4-4-4-4-4-4-4-----------|
  . . . . . . .           . . . . . . .

(2:32)
|-------------------------------------------------|
|-------------------------------------------------|
|-------------------------------------------------|
|-------------------------------------------------|
|-0-0-0-0-0-0-0-----------0-0-0-0-0-0-0-----------|
|-0-0-0-0-0-0-0-----------0-0-0-0-0-0-0-----------|
  . . . . . . .           . . . . . . .

(2:35)
|-------------------------------------------------|
|-------------------------------------------------|
|-------------------------------------------------|
|-------------------------------------------------|
|-2-2-2-2-2-2-2-----------2-2-2-2-2-2-2-----------|
|-2-2-2-2-2-2-2-----------2-2-2-2-2-2-2-----------|
  . . . . . . .           . . . . . . .

(2:39)
|-------------------------------------------------|
|-------------------------------------------------|
|-------------------------------------------------|
|-6-6-6-6-6-6-6-----------6-6-6-6-6-6-6-----------|
|-4-4-4-4-4-4-4-----------4-4-4-4-4-4-4-----------|
|-------------------------------------------------|
  . . . . . . .           . . . . . . .

(2:42)
|-------------------------------------------------|
|-7-7-7-7-7-7-7-7-7-7-7-7-7-7-7-7-7-7-7-7-7-7-7-7-|
|-x-x-x-x-x-x-x-x-x-x-x-x-x-x-x-x-x-x-x-x-x-x-x-x-|
|-4-4-4-4-4-4-4-4-4-4-4-4-4-4-4-4-4-4-4-4-4-4-4-4-|
|-------------------------------------------------|
|-------------------------------------------------|

(2:46)
|-------------------------------------------------|
|-9-9-9-9-9-9-9-9-9-9-9-9-9-9-9-9-9-9-9-9-9-9-9-9-|
|-x-x-x-x-x-x-x-x-x-x-x-x-x-x-x-x-x-x-x-x-x-x-x-x-|
|-6-6-6-6-6-6-6-6-6-6-6-6-6-6-6-6-6-6-6-6-6-6-6-6-|
|-------------------------------------------------|
|-------------------------------------------------|

(2:49)
|-------------------------------------------------------------------------|
|-10-10-10-10-10-10-10-10-10-10-10-10-10-10-10-10-10-10-10-10-10-10-10-10-|
|--x--x--x--x--x--x--x--x--x--x--x--x--x--x--x--x--x--x--x--x--x--x--x--x-|
|--7--7--7--7--7--7--7--7--7--7--7--7--7--7--7--7--7--7--7--7--7--7--7--7-|
|-------------------------------------------------------------------------|
|-------------------------------------------------------------------------|

(2:53)
|-------------------------------------------------|
|-9-9-9-9-9-9-9-9-9-9-9-9-9-9-9-9-9-9-9-9-9-9-9-9-|
|-x-x-x-x-x-x-x-x-x-x-x-x-x-x-x-x-x-x-x-x-x-x-x-x-|
|-6-6-6-6-6-6-6-6-6-6-6-6-6-6-6-6-6-6-6-6-6-6-6-6-|
|-------------------------------------------------|
|-------------------------------------------------|



PRECHORUS---
[repeat INTRO Part 1]
(2:57-3:03)
"If... I..."


CHORUS---
[repeat CHORUS]
(3:04-3:24)
"tear you open wide, take a look inside, are you pretty?...
Can I get inside your mind, see what I can find, are you pretty?...
So just take off that disguise, everyone knows that you're lonely...
Pretty on the outside..."


OUTRO---
[repeat VERSE 1]
(3:25-3:56)
"You're so pretty on the outside... 
You're so pretty on the outside..."



Tap to rate this tab
 
# A B C D E F G H I J K L M N O P Q R S T U V W X Y Z